» » »

Wir Haben Alles Gute Vor Uns Bass tabs (ver.1)

Artists:  A B C D E F G H I J K L M N O P Q R S T U V W X Y Z # 

Wir Haben Alles Gute Vor Uns Bass tabs (ver.1)

Xavier Naidoo
Rating:
0/5 (0 votes)

Hard to play? Try these video lessons and learn fast.
                You can use this Baseline the complete song.

~ = hold

G-----------------------------------------------|
D-----------------------------------------------|
A--7-5-----7-5-----8-7------8-7-----------------|
E------8-7-----8-7-----10-8-----10-8------------|......

Guitar solo:

G-------------------------------------------------------------------|
D-------------------------------------------------------------------|
A--7~---5-7-8~---8~---7~-------7-5-----7-5-----8-7------8-7---------|
E----------------------------------8-7-----8-7-----10-8-----10-8----|.....


Greez Peet
            
Hard to play? Try these video lessons and learn fast. | Correct




comments powered by Disqus
↑ Back to top | Tablatures and chords are parodies/interpretations of the original songs. You may use it for private study, scholarship, research or language learning purposes only