» » »

Vielleicht Tabs (ver.1)

Artists:  A B C D E F G H I J K L M N O P Q R S T U V W X Y Z # 

Vielleicht Tabs (ver.1)

Xavier Naidoo
Rating:
4/5 (1 vote)

Hard to play? Try these video lessons and learn fast.
                Hey, this is this the first time i post a song, so i hope, my english
is good enough, so you'll understand me^^

It's one of the best Songs, Xavier made, i love it, and its sooo easy to play! hope you
like it,

ENJOY!

Xaier Naidoo (Söhne Mannheims)- Vielleicht

order:

Intro: 2x
Break: 1x
Intro: 8x
Extra: 1x
Break: 1x
Intro: 8x

Intro:
e-----------------------------------------------------------------|
B-------9-------9-------9-------9------9------9-------9-------9---|
G----11------11------11------11-9----9------9------11------11-----|
D--9-------9-------9-------9-------9------9------9-------9--------|
A-----------------------------------------------------------------|
E-----------------------------------------------------------------|

e----------------------------------------------------------------------------|
B--------10-------10-------10-------10-------12-------12-------12-------12---|
G------9--------9--------9--------9--------9--------9--------9--------9------|
D---11-------11-------11-------11-------11-------11-------11-------11--------|
A----------------------------------------------------------------------------|
E----------------------------------------------------------------------------|

Break:
e----------------------------------------|
B--------10-------10-------10-------10---|
G------9--------9--------9--------9------|
D---11-------11-------11-------11--------|
A----------------------------------------|
E----------------------------------------|

Extra:
    E       A       E       A
e-------------------------------|
B---9-------5-------9-------5---|
G---9-------6-------9-------6---|
D---9-------7-------9-------7---|
A---7-------7-------7-------7---|
E-----------5---------------5---|

Outro:
e-----------------------------------------------------------------|
B-------9-------9-------9-------9------9------9-------9-------9---|
G----11------11------11------11-9----9------9------11------11-----|
D--9-------9-------9-------9-------9------9------9-------9--------|
A-----------------------------------------------------------------|
E-----------------------------------------------------------------|

e----------------------------------------------------------------------------|
B--------10-------10-------10-------10-------12-------12-------12-------12---|
G------9--------9--------9--------9--------9--------9--------9--------9------|
D---11-------11-------11-------11-------11-------11-------11-------11--------|
A----------------------------------------------------------------------------|
E----------------------------------------------------------------------------|
            
Hard to play? Try these video lessons and learn fast. | Correct




comments powered by Disqus
↑ Back to top | Tablatures and chords are parodies/interpretations of the original songs. You may use it for private study, scholarship, research or language learning purposes only