» » »

Xandria, Mermaids Tabs (ver.1)

Artists:  A B C D E F G H I J K L M N O P Q R S T U V W X Y Z # 

Mermaids Tabs (ver.1)

Xandria Tabs
 Rating:
4.2/5 (5 votes)
Mermaids lessons Tabs too difficult? Try these video lessons and learn fast
1
                                                              Xandria – Mermaids
By Sanjeev George and Thomas George

Tuning: drop D


Intro
Guitar 1
e|-------------------------------------------------------------------|
B|-------------------------------------------------------------------|
G|-------------12v---14b15r14----------------------------------------| x 2
D|-------12h15----------------12v----12h13-15v----12b13v-13\-10vv----|
A|-------------------------------------------------------------------|
D|-------------------------------------------------------------------|

Guitar 2:
     C5         G5        Bb5       F5
e|---------------------------------------------|
B|---------------------------------------------|
G|---------------------------------------------|
D|--55555555—-55555555--33333333--33333333-----| x 2
A|--33333333—-55555555—-11111111--33333333-----|
D|------------55555555------------33333333-----|

Verse 1
Guitar 2(w/tremolo)
e|-------|
B|-------|
G|--5~---|
D|--5~---|
A|--3~---|
D|-------|
   Try…..

e|-----------------------------------------------------------------------|
B|-----------------------------------------------------------------------|
G|-----------------------------------------------------------------------|x2
D|----5-----5-----5--------------------3-----3-----3---------------------| 
A|----3-3-3-3-3-3-3-3--5-----5-----5---1-1-1-1-1-1-1-1--3-----3-----3----|
D|---------------------5-5-5-5-5-5-5-5------------------3-3-3-3-3-3-3-3--|
        . .   . .   .    . .   . .   .   . .   . .   .    . .   . .   .

     Lie…..

     G5    Ab5
e|---------------------|
B|---------------------|
G|---------------------|
D|----5~----6~----5----|
A|----5~----6~----5----|
D|----5~----6~----5----|
                  X

  Don’t dive…     The sea!!

Chorus (both guitars)
e|----------------------------------------------|
B|----------------------------------------------|
G|----------------------------------------------|
D|----55555555--55555555--33333333--33333333----|
A|----33333333--55555555--11111111--33333333----|
D|--------------55555555------------33333333----|
   Come and be….

e|------------------------------------------|
B|------------------------------------------|
G|------------------------------------------|
D|----55555555--55555555--33333333--3333----|
A|----33333333--55555555--11111111--3333----|
D|--------------55555555------------3333----|



Verse 2

Guitar 2
e|-----------------------------------------------------------------------|
B|-----------------------------------------------------------------------|
G|-----------------------------------------------------------------------|x2
D|----5-----5-----5--------------------3-----3-----3---------------------| 
A|----3-3-3-3-3-3-3-3--5-----5-----5---1-1-1-1-1-1-1-1--3-----3-----3----|
D|---------------------5-5-5-5-5-5-5-5------------------3-3-3-3-3-3-3-3--|
        . .   . .   .    . .   . .   .   . .   . .   .    . .   . .   .

e|---------------------|
B|---------------------|
G|---------------------|
D|----5~----6~----5----|
A|----5~----6~----5----|
D|----5~----6~----5----|
                  X
Don’t dive…     The sea!!


Guitar 1: natural harmonics



Chorus again

Bridge(Both guitars)
      F5        G5      Eb5      
e|-----------------------------------------------------------|
B|-----------------------------------------------------------|
G|-----------------------------------------------------------|
D|--------------5---5-5—-1~---5—-33~----1-11--3-33--33—-55~--|
A|----333-3~----5---5-5—-1~---5—-33~----1-11--3-33--33—-55~--|
E|----333-3~----5---5-5--1~---5—-33~----1-11--3-33--33—-55~--|
                      .                   ..    ..  ..
        
e|-----------------------------------------------------------|
B|-----------------------------------------------------------|
G|-----------------------------------------------------------|
D|----5-5—-1~----5—-33~----3333333333--5--55—-1~----5-5-1~---|
A|----5-5—-1~----5—-33~----3333333333--5--55—-1~----5-5-1~---|
E|----5-5—-1~----5—-33~----3333333333--5--55—-1~----5-5-1~---|     
        .                                  .
 
e|-----------------------------------------------------------|
B|-----------------------------------------------------------|
G|-----------------------------------------------------------|
D|--1-1-1--3-3-3--3-3-55-----5-5-1~----5-5-3~----3-333-3-----|
A|--1-1-1--3-3-3--3-3-55~----5-5-1~----5-5-3~----3-333-3-----|
E|--1-1-1--3-3-3--3-3-55~----5-5-1~----5-5-3~----3-333-3-----|
      . .    . .               .                       x


Just before final chorus
e|------------------------------|
B|------------------------------|
G|------------------------------|
D|----5-5---5-5----6-6---6-6----|
A|----5-5---5-5----6-6---6-6----|
D|----5 5---5-5----6-6---6-6----|
        .     .      .     .

Then chorus till the end

| /  slide up
| \  slide down
| h  hammer-on
| p  pull-off
| ~  let ring
| +  harmonic
| x  Mute note with fretting finger/s
| v  vibrato
|  . palm mute

Verse 1
sigh - for they make you feel alive 
try - it's just one step aside 
fly - over seas of drunken wine 
lie - cause you'll never draw a line 
Don’t dive too deep -too deep into the sea 

Chorus
come and be a child of the blue 
we make the azure dream come true 
verse 2
cry - for they leave you cold and dead 
ride - til the last of suns is set 
don't dive too deep - too deep into the sea 

Chorus
come and be a child of the blue 
we make the azure dream come true 

Bridge
i drift and fall - sapphire spear inside 
they come for me and softly close my eyes 

Verse 3
fight - for this is your last chance 

Chorus
come and be a child of the blue 
leave the past, we make it new 
you will always be our child

Please rate and comment. It’s possible that some licks have been missed, but anyways,enjoy!!!
            
Submit corrections

comments powered by Disqus
↑ Back to top | Xandria Tabs for Mermaids. Lyrics for acoustic guitar and electric guitar. 1 Tablatures and chords are parodies/interpretations of the original songs. You may use it for private study, scholarship, research or language learning purposes only