» »

X, Wild Thing Tabs (ver.1)

Artists:  A B C D E F G H I J K L M N O P Q R S T U V W X Y Z # 

Wild Thing Tabs (ver.1)

X Tabs
 Rating:
3.7/5 (6 votes)
Wild Thing lessons Tabs too difficult? Try these video lessons and learn fast
1
                =======================================================================
Band: X
Tuning: Guitar I: Drop D (DADGBe)
Tuning: Guitar II: Standard (EADGBe)



h = hammer on
p = pull off
^ = bend                               
~ = let it ring                     
/ = slide up                             
\ = slide down                            
X = palm mute                              
+ = harmonic                                
v = vibrato  

=======================================================================                                

Intro: Guitar II (Standard)
e|-----------------|-0--0------------------|  |-0--0-------|----------|
B|-----------------|-0--0------------------|  |-0--0-------|----------|
G|-----------------|-1--1------------------|  |-1--1-------|----------|
D|-----------------|-2--2--7-7--9--9--7-7--|x3|-2--2--7-7--|-9--------|
A|-----------------|-2--2--7-7--9--9--7-7--|  |-2--2--7-7--|-9---x16--|
E|--0~-------------|-0--0--5-5--7--7--5-5--|  |-0--0--5-5--|-7--------|

Intro: Guitar I (Drop D)
e|-----------------|-----------------------|  |------------|----------|
B|-----------------|-----------------------|  |------------|----------|
G|-----------------|-----------------------|  |------------|----------|
D|-------------7\2-|-2--2--7-7--9--9--7-7--|x3|-2--2--7-7--|-9--------|
A|-------------7\2-|-2--2--7-7--9--9--7-7--|  |-2--2--7-7--|-9---x16--|
D|-------------7\2-|-2--2--7-7--9--9--7-7--|  |-2--2--7-7--|-9--------|

=======================================================================

Verse: Guitar II (Standard)
e|-0--0------------------|  |-0--0-------|---------|---7-----7---7~--|
B|-0--0------------------|  |-0--0-------|---------|-7----7----7-----|
G|-1--1------------------|  |-1--1-------|---------|-----------------|
D|-2--2--7-7--9--9--7-7--|x3|-2--2--7-7--|---------|-----------------|
A|-2--2--7-7--9--9--7-7--|  |-2--2--7-7--|---------|-----------------|
E|-0--0--5-5--7--7--5-5--|  |-0--0--5-5--|---------|-----------------|

Verse: Guitar I (Drop D)
e|-----------------------|  |------------|---------|-----------------|
B|-----------------------|  |------------|---------|-----------------|
G|-----------------------|  |------------|---------|-----------------|
D|-2--2--7-7--9--9--7-7--|x3|-2--2--7-7--|-9-------|-99999999---5\2~-|
A|-2--2--7-7--9--9--7-7--|  |-2--2--7-7--|-9--x16--|-99999999---5\2~-|
D|-2--2--7-7--9--9--7-7--|  |-2--2--7-7--|-9-------|-99999999---5\2~-|

=======================================================================
Chorus: Guitar I (Drop D)

e|-----------------------------------|
B|-----------------------------------|
G|-----------------------------------|
D|--------------------------0-2-0-2~-|
A|--------------------------0-2-0-2~-|x3
D|--------------------------0-2-0-2~-|

=======================================================================

Verse: Guitar II (Standard)
e|-0--0------------------|  |-0--0-------|---------|----19----19---19~|
B|-0--0------------------|  |-0--0-------|---------|-19----19----19---|
G|-1--1------------------|  |-1--1-------|---------|------------------|
D|-2--2--7-7--9--9--7-7--|x3|-2--2--7-7--|---------|------------------|
A|-2--2--7-7--9--9--7-7--|  |-2--2--7-7--|---------|------------------|
E|-0--0--5-5--7--7--5-5--|  |-0--0--5-5--|---------|------------------|

Verse: Guitar I (Drop D)
e|-----------------------|  |------------|---------|-----------------|
B|-----------------------|  |------------|---------|-----------------|
G|-----------------------|  |------------|---------|-----------------|
D|-2--2--7-7--9--9--7-7--|x3|-2--2--7-7--|-9-------|-99999999---5\2~-|
A|-2--2--7-7--9--9--7-7--|  |-2--2--7-7--|-9--x16--|-99999999---5\2~-|
D|-2--2--7-7--9--9--7-7--|  |-2--2--7-7--|-9-------|-99999999---5\2~-|

=======================================================================

Chorus: Guitar I (Drop D)

e|-----------------------------------|
B|-----------------------------------|
G|-----------------------------------|
D|--------------------------0-2-0-2~-|
A|--------------------------0-2-0-2~-|x3
D|--------------------------0-2-0-2~-|

=======================================================================

Solo: Guitar II (Standard)

e|---------------------12----------------------------------------------
B|/12--12~--10/12~--10----12p10----------------------------------------
G|------------------------------9--/12-12---9----9-9-/12---------------
D|--------------------------------------------12-----------------------
A|---------------------------------------------------------------------
E|---------------------------------------------------------------------

e|----12---------------------------------------------------------------
B|-10----12p10-----------12--12p10----10-------------------------------
G|-------------9--12--9------------12---12-9-7--9-9p7---7-9-9p7--------
D|----------------------------------------------------9---------9------
A|---------------------------------------------------------------------
E|---------------------------------------------------------------------

e|---------------------------------------------10^-12-12-10-12--/15-17-
B|--8----------8---8-10-10^-10^-10^-10^-10^-10^------------------------
G|----9p7-9-9----9-----------------------------------------------------
D|---------------------------------------------------------------------
A|---------------------------------------------------------------------
E|---------------------------------------------------------------------

e|--15-17--14-14-14-14-14-14-14-14-14-14-14-14-\\\\\\\----------------|
B|---------14-14-14-14-14-14-14-14-14-14-14-14-\\\\\\\----------------|
G|--------------------------------------------------------------------|
D|--------------------------------------------------------------------|
A|--------------------------------------------------------------------|
E|--------------------------------------------------------------------|


Solo: Guitar I (Drop D)
e|-----------------------|  |------------|----------|-----------------|
B|-----------------------|  |------------|----------|-----------------|
G|-----------------------|  |------------|----------|-----------------|
D|-2--2--7-7--9--9--7-7--|x3|-2--2--7-7--|-9--------|-99999999-9\2----|
A|-2--2--7-7--9--9--7-7--|  |-2--2--7-7--|-9---x24--|-99999999-9\2----|
D|-2--2--7-7--9--9--7-7--|  |-2--2--7-7--|-9--------|-99999999-9\2----|

=======================================================================

Outro: Guitar II (Standard)
e|-0--0------------------|  
B|-0--0------------------|  
G|-1--1------------------|  
D|-2--2--7-7--9--9--7-7--| Fade to End  
A|-2--2--7-7--9--9--7-7--| (Approximately x14) 
E|-0--0--5-5--7--7--5-5--|  

Outro: Guitar I (Drop D)
e|-----------------------|  
B|-----------------------|  
G|-----------------------|  
D|-2--2--7-7--9--9--7-7--| Fade to End
A|-2--2--7-7--9--9--7-7--| (Approximately x14)
D|-2--2--7-7--9--9--7-7--|  

=======================================================================
            
Submit corrections

comments powered by Disqus
↑ Back to top | X Tabs for Wild Thing. Lyrics for acoustic guitar and electric guitar. 1 Tablatures and chords are parodies/interpretations of the original songs. You may use it for private study, scholarship, research or language learning purposes only