» »

X, The Unheard Music Bass tabs (ver.1)

Artists:  A B C D E F G H I J K L M N O P Q R S T U V W X Y Z # 

The Unheard Music Bass tabs (ver.1)

X Tabs
Rating:
0/5 (0 votes)
The Unheard Music lessons Tabs too difficult? Try these video lessons and learn fast
                alright fun and easy song to play for bass


                     "Unheard Music"




G------------------|
D------------------|
A--0--2------------|
E--------2-2-2-2-2-|repeat throughout verse


until

       - there's-laughing-out-side-we're-locked-out-of-the-public eye

G-----------------------------------------------------------|
D--0--2--0--2--0--2--0--2--0--2--0--2--0--2--0--2-2-2-2-2-2-|
A-----------------------------------------------------------|
E-----------------------------------------------------------|


let these next ones ring

 -some smoooooth  chooooordsss on the car radioooooo

G------------------------------------------------------|
D------------------------------------------------------|
A--5~~~~~~---------7~~~~~~~~~-----5~~~~~~~~-----7~~~~~~|
E------------------------------------------------------|

 no haaaaaaaaarrrd choooooorrrrdssss  on the car radioooooooooo

G------------------------------------------------------|
D------------------------------------------------------|
A--5~~~~~~---------7~~~~~~~~~------5~~~~~~~~-----------|
E------------------------------------------------------|


back to main riff:

G-----------------|
D-----------------|
A--0--2------------|
E--------2-2-2-2-2-|

repeat until yer done
-bertman

Lyrics too:

verse:
friends warehouse pain
attack there own kind
a thousand kids 
bury there parents

pre chorus:
theres laughing out side
we're locked out of the public eye

Chorus:
Some smooth chords
on the car radio
no hard chords
on the car radio

2nd verse:
we set the trash on fire
and watch outside the door
men comb up the pavement
under the marquee

repeat pre chorus and chorus and then 1st verse
            
Submit corrections

comments powered by Disqus
↑ Back to top | X Bass for The Unheard Music. Lyrics for acoustic guitar and electric guitar. Tablatures and chords are parodies/interpretations of the original songs. You may use it for private study, scholarship, research or language learning purposes only