» »

X, The New World Tabs (ver.1)

Artists:  A B C D E F G H I J K L M N O P Q R S T U V W X Y Z # 

The New World Tabs (ver.1)

X Tabs
Rating:
0/5 (0 votes)
The New World lessons Tabs too difficult? Try these video lessons and learn fast
                yess X!!

     "The New World"by -X-


|-----------------------------------------------------|
|-----------------------------------------------------|
|-----------------------------------------------------|
|-4-4-4-4-4-4-4-4-4-4-4-4-2-2-2-2-2-2-2-2-2-2-2-2-----|
|-0-0-0-0-0-0-0-0-0-0-0-0-0-0-0-0-0-0-0-0-0-0-0-0-----|
|-----------------------------------------------------|

|-----------------------------------------------------|
|-----------------------------------------------------|
|-----------------------------------------------------|
|-4-4-4-4-4-4-4-4-4-4-4-4-2-2-2-2-2-2-2-2-2-2-2-2-----|
|-0-0-0-0-0-0-0-0-0-0-0-0-0-0-0-0-0-0-0-0-0-0-0-0-----|
|-----------------------------------------------------|

|---------------------------------------------------|
|---5---7~~~~~~~~~~~~--5-----2~~~~~~~~~~~~~~--------|
|-----6--------------------6------------------------|
|---------------------------------------------------|
|---------------------------------------------------|
|---------------------------------------------------|


|----------------------------------|
|---5---7~~~~-----5---5~~~~~~~~~~--|
|-----6-------------6--------------|
|----------------------------------|
|----------------------------------|
|----------------------------------|

P.M [------------------------------------------------
honest to goodness, the bars weren't open this mornin'
|------------------------------------------------------|
|------------------------------------------------------|
|--------2------------2-----------2--------------------|
|--2-2-2-2-2-2-2-2-2-2-2-2-2-2-2-2-2-2-2-2-2-2-2-2-----|
|--0-0-0-0-0-0-0-0-0-0-0-0-0-0-0-0-0-0-0-0-0-0-0-0-----|
|------------------------------------------------------|

P.M [------------------------------------------------
they musta been voting for a new president or sumethin'
|------------------------------------------------------|
|------------------------------------------------------|
|--------2------------2-----------2--------------------|
|--2-2-2-2-2-2-2-2-2-2-2-2-2-2-2-2-2-2-2-2-2-2-2-2-----|
|--0-0-0-0-0-0-0-0-0-0-0-0-0-0-0-0-0-0-0-0-0-0-0-0-----|
|------------------------------------------------------|

P.M [------------------------------------------------
do ye have a quarter? i said yes because i 
face
|------------------------------------------------------|
|------------------------------------------------------|
|--------2------------2-----------2--------------------|
|--2-2-2-2-2-2-2-2-2-2-2-2-2-2-2-2-2-2-2-2-2-2-2-2-----|
|--0-0-0-0-0-0-0-0-0-0-0-0-0-0-0-0-0-0-0-0-0-0-0-0-----|
|------------------------------------------------------|

 itwasbetterbeforebefore.theyvotedforwhatshisname?
 ...............................thissupposedtobeTHENEWWORLD!!!
|-------------------------------------------------------------------|
|-------------------------------------------------------------------|
|---7--7--7--7---4--4--4-4-4-4--7--7--7--7---9--9-9-9-9-9-9-9-9-9-9-|
|---7--7--7--7---4--4--4-4-4-4--7--7--7--7---9--9-9-9-9-9-9-9-9-9-9-|
|---5--5--5--5---2--2--2-0-2-0--5--5--5--5---7--7-7-7-7-7-7-7-7-7-7-|
|-------------------------------------------------------------------|

 itwasbetterbeforebefore.theyvotedforwhatshisname?
 ...............................thissupposedtobeTHENEWWORLD!!!
|-------------------------------------------------------------------|
|-------------------------------------------------------------------|
|---7--7--7--7---4--4--4-4-4-4--7--7--7--7---9--9-9-9-9-9-9-9-9-9-9-|
|---7--7--7--7---4--4--4-4-4-4--7--7--7--7---9--9-9-9-9-9-9-9-9-9-9-|
|---5--5--5--5---2--2--2-0-2-0--5--5--5--5---7--7-7-7-7-7-7-7-7-7-7-|
|-------------------------------------------------------------------|

|------------------------------------------|
|------5---7~~~~~---5----2~~~~~~~~~~~~-----|
|--------6-------------6-------------------|
|------------------------------------------|
|------------------------------------------|
|------------------------------------------|
|------------------------------------------|

|----------------------------------|
|---5---7~~~~-----5---5~~~~~~~~~~--|
|-----6-------------6--------------|
|----------------------------------|
|----------------------------------|
|----------------------------------|
i'm sorry about the words being off
, i was really just trying to show where in the song the parts are so disregard them

that's all

-Bert
            

comments powered by Disqus
↑ Back to top | X Tabs for The New World. Lyrics for acoustic guitar and electric guitar. Tablatures and chords are parodies/interpretations of the original songs. You may use it for private study, scholarship, research or language learning purposes only