» »

Poor Girl Tabs (ver.1)

Artists:  A B C D E F G H I J K L M N O P Q R S T U V W X Y Z # 

Poor Girl Tabs (ver.1)

X
Rating:
4/5 (2 votes)
Tabs too difficult? Try these video lessons and learn fast.
                it's amazing when they play this live


           "POOR GIRL" by -X-


|-------------------------------------------------------------|
|-------------------------------------------------------------|
|---5--4-------------------------5--4-------------------------|
|---5--4--0----------------------5--4--0----------------------|
|---3--2--0--5--5--5--5-5-----2--3--2--0--5--5--5--5-5-----2--|
|------------3--3--3--3-3--3-5------------3--3--3--3-3--3-5---|


you sat at home,windows tinted black  it hit you hard and you cried so long
|-----------------------------------|---------------------------------|
|-----------------------------------|---------------------------------|
|---5--4----------------------------|---5--4--------------------------|
|---5--4--0-------------------------|---5--4--0-----------------------|
|---3--2--0--5-5-5-5-5--5-5-5-5-5-5-|---3--2--0--5-5-5-5-5--5-5-5-5-5-|
|------------3-3-3-3-3--3-3-3-3-3-3-|------------3-3-3-3-3--3-3-3-3-3-|

life turned n wondered never t' come back again take what she gives you
|-----------------------------------|----------------------------|
|-----------------------------------|----------------------------|
|---5--4----------------------------|---7/5-5-5-5-5-5-4/5-5-5-5--|
|---5--4--0-------------------------|---7/5-5-5-5-5-5-4/5-5-5-5--|
|---3--2--0--5-5-5-5-5--5-5-5-5-5-5-|---5/3-3-3-3-3-3-2-3-3-3-3--|
|------------3-3-3-3-3--3-3-3-3-3-3-|----------------------------|


dont feel sorry for herrrrrrrrr

|----------------------------------------------|
|----------------------------------------------|
|---5-5-5-5-5-5-5-5-5-5-7-7-7-7-7-7-7-7-7-7-7--|
|---5-5-5-5-5-5-5-5-5-5-7-7-7-7-7-7-7-7-7-7-7--|
|---3-3-3-3-3-3-3-3-3-3-5-5-5-5-5-5-5-5-5-5-5--|
|----------------------------------------------|

repeat verse part and then:


poor litle girl,ran away for good,i try to explain why she won't say a thing
|-----------------------------------------------|
|-----------------------------------------------|
|--------------7-7-7-7-7--9-9-9-9-9--7-7-7-7-7--|
|---5-5-5-5-5--7-7-7-7-7--9-9-9-9-9--7-7-7-7-7--|
|---5-5-5-5-5--5-5-5-5-5--7-7-7-7-7--5-5-5-5-5--|
|---3-3-3-3-3-----------------------------------|

sad sad thing i'm so far away now how can i say why she wont talk at all
|-----------------------------------------------|
|-----------------------------------------------|
|--------------7-7-7-7-7--9-9-9-9-9--7-7-7-7-7--|
|---5-5-5-5-5--7-7-7-7-7--9-9-9-9-9--7-7-7-7-7--|
|---5-5-5-5-5--5-5-5-5-5--7-7-7-7-7--5-5-5-5-5--|
|---3-3-3-3-3-----------------------------------|


she holds her deck of cards she wants to be alone"i been very i'll, and i 've tried 
up now i want to be alone"
|------------------------------------------------------------------------|
|------------------------------------------------------------------------|
|------------------------------------------------------------------------|
|---5--5--5-5-5--5--5--5-5-5--5--5--5-5-5--5-5-5-5-5-5-5-5-5-5-5-5-5-5-5-|
|---5--5--5-5-5--5--5--5-5-5--5--5--5-5-5--5-5-5-5-5-5-5-5-5-5-5-5-5-5-5-|
|---3--3--3-3-3--3--3--3-3-3--3--3--3-3-3--3-3-3-3-5-5-5-5-5-5-5-5-5-5-5-| keep playing 
g chord until:


|-------------------------------------------------------------|
|-------------------------------------------------------------|
|---5--4-------------------------5--4-------------------------|
|---5--4--0----------------------5--4--0----------------------|
|---3--2--0--5--5--5--5-5-----2--3--2--0--5--5--5--5-5-----2--|
|------------3--3--3--3-3--3-5------------3--3--3--3-3--3-5---|


and keep repeating this stuff until end of song,
 i'm sorry some words aren't on time but if you know the song you'll know how to play it

-Bert (X's only fan that plays guitar)
            
Tabs too difficult? Try these video lessons and learn fast.


comments powered by Disqus
↑ Back to top | Tablatures and chords are parodies/interpretations of the original songs. You may use it for private study, scholarship, research or language learning purposes only