» »

X, Nausea Tabs (ver.1)

Artists:  A B C D E F G H I J K L M N O P Q R S T U V W X Y Z # 

Nausea Tabs (ver.1)

X Tabs
 Rating:
4.2/5 (5 votes)
Nausea lessons Tabs too difficult? Try these video lessons and learn fast
1
                Band: X

Everything’s here, but you’ll have to work out the correct number of times to play each 
yourself.


e|----------------------------------|
B|----------------------------------|
G|7-7-7-10-9-9-9-12-9-9-9-9-9-9-9-9-|
D|7-7-7-10-9-9-9-12-9-9-9-9-9-9-9-9-|
A|5-5-5-8--7-7-7-10-7-7-7-7-7-7-7-7-|
E|----------------------------------|

e|----------------------------------|
B|----------------------------------|
G|7-7-7-10-9-9-9-12-9-9-9-9-9-9-9-9-|
D|7-7-7-10-9-9-9-12-9-9-9-9-9-9-9-9-|
A|5-5-5-8--7-7-7-10-7-7-7-7-7-7-7-7-|
E|----------------------------------|


Verse
e|----------------------------------|
B|----------------------------------|
G|9-9-9-9-9-9-9-12-9-9-9-9-9-9-9-12-|
D|9-9-9-9-9-9-9-12-9-9-9-9-9-9-9-12-|
A|7-7-7-7-7-7-7-10-7-7-7-7-7-7-7-10-|
E|----------------------------------|

e|----------------------------------|
B|----------------------------------|
G|9-9-9-9-9-9-9-12-9-9-9-9-9-9-9-12-|
D|9-9-9-9-9-9-9-12-9-9-9-9-9-9-9-12-|
A|7-7-7-7-7-7-7-10-7-7-7-7-7-7-7-10-|
E|----------------------------------|

e|----------------------------------|
B|----------------------------------|
G|7-7-7-10-9-9-9-12-9-9-9-9-9-9-9-9-|
D|7-7-7-10-9-9-9-12-9-9-9-9-9-9-9-9-|
A|5-5-5-8--7-7-7-10-7-7-7-7-7-7-7-7-|
E|----------------------------------|

e|----------------------------------|
B|----------------------------------|
G|7-7-7-10-9-9-9-12-9-9-9-9-9-9-9-9-|
D|7-7-7-10-9-9-9-12-9-9-9-9-9-9-9-9-|
A|5-5-5-8--7-7-7-10-7-7-7-7-7-7-7-7-|
E|----------------------------------|

e|--------------------------------|
B|--------------------------------|
G|9-9-9-9-9-9-9-9-9-9-9-9-9-9-9-9-|
D|9-9-9-9-9-9-9-9-9-9-9-9-9-9-9-9-|
A|7-7-7-7-7-7-7-7-7-7-7-7-7-7-7-7-|
E|--------------------------------|

e|----------------------------------|
B|----------------------------------|
G|7-7-7-10-9-9-9-12-9-9-9-9-9-9-9-9-|
D|7-7-7-10-9-9-9-12-9-9-9-9-9-9-9-9-|
A|5-5-5-8--7-7-7-10-7-7-7-7-7-7-7-7-|
E|----------------------------------|

e|----------------------------------|
B|----------------------------------|
G|7-7-7-10-9-9-9-12-9-9-9-9-9-9-9-9-|
D|7-7-7-10-9-9-9-12-9-9-9-9-9-9-9-9-|
A|5-5-5-8--7-7-7-10-7-7-7-7-7-7-7-7-|
E|----------------------------------|

Chorus
e|--------------------------------|
B|--------------------------------|
G|5-5-5-5-5-5-5-5-7-7-7-7-7-7-7-7-|
D|5-5-5-5-5-5-5-5-7-7-7-7-7-7-7-7-|
A|3-3-3-3-3-3-3-3-5-5-5-5-5-5-5-5-|
E|--------------------------------|


e|--------------------------------|
B|--------------------------------|
G|8-8-8-8-8-8-8-8-4-4-4-4-4-4-4-4-|
D|8-8-8-8-8-8-8-8-4-4-4-4-4-4-4-4-|
A|6-6-6-6-6-6-6-6-2-2-2-2-2-2-2-2-|
E|--------------------------------|

e|--------8—-12----|
B|------8----------|
G|----9------------|
D|-10--------------|
A|-----------------|
E|-----------------|
            
Submit corrections

comments powered by Disqus
↑ Back to top | X Tabs for Nausea. Lyrics for acoustic guitar and electric guitar. 1 Tablatures and chords are parodies/interpretations of the original songs. You may use it for private study, scholarship, research or language learning purposes only