» »

Los Angeles Tabs (ver.2)

Artists:  A B C D E F G H I J K L M N O P Q R S T U V W X Y Z # 

Los Angeles Tabs (ver.2)

X
Rating:
3/5 (2 votes)

Hard to play? Try these video lessons and learn fast.
                (Intro)
1|-------------|----------------|
2|-------------|----------------|
3|-9--5--7-----|----------------|
4|-9--5--7--5--|-7--7-7-7-7-7-7-|
5|-7--3--5--5--|-7--7-7-7-7-7-7-|
6|----------3--|-5--5-5-5-5-5-5-|
                    . . . . . .


1|-------------|----------------|
2|-------------|----------------|
3|-9--5--7-----|----------------|
4|-9--5--7--5--|-7--7-7-7-7-7-7-|
5|-7--3--5--5--|-7--7-7-7-7-7-7-|
6|----------3--|-5--5-5-5-5-5-5-|
                    . . . . . .


1|-----------------|-----------------|
2|-----------------|-----------------|
3|-----------------|-----------------|
4|-7-7-7-7-7-7-7-7-|-7-7-7-7---------|
5|-7-7-7-7-7-7-7-7-|-7-7-7-7-----3-5-|
6|-5-5-5-5-5-5-5-5-|-5-5-5-5-5-3-----|
   . . . . . . . . 
            
Hard to play? Try these video lessons and learn fast. | Correct




comments powered by Disqus
↑ Back to top | Tablatures and chords are parodies/interpretations of the original songs. You may use it for private study, scholarship, research or language learning purposes only