>
 >
 >
I Must Not Think Bad Thoughts

I Must Not Think Bad Thoughts Guitar Tabs

X - I Must Not Think Bad Thoughts chords, tabs, tablatures, lyrics

Guitar lessons | Add/correct | Request | Top 50 tabs Artists:  A B C D E F G H I J K L M N O P Q R S T U V W X Y Z 0-9

I Must Not Think Bad Thoughts Guitar Tabs – X

CD, Sheet music, Poster

Do you like I Must Not Think Bad Thoughts? Share with your friends now
Tabs
hi it's bert again, i've been working on this a little while now, it's only missing one 
fill.
Billy sure does use some crazy chords.

                                  "I MUST NOT THINK BAD THOUGHTS" by -X-


|--------------|-------------|-7-4h7p4-----------|-------------|-------------|-7-7-4----|
|---------5--7-|-5h7p5-------|----------7--5-----|--------5--7-|-5h7p5-------|-5-5-5--7-|
|-------4------|--------6--4-|----------------6--|------4------|--------6--4-|----------|
|-----6--------|-------------|-------------------|----6--------|-------------|----------|
|---4----------|-------------|-------------------|--4----------|-------------|----------|
|--------------|-------------|-------------------|-------------|-------------|----------|

   the fact we hate we'll never be,  walking down the road everybody goin' "hurry up, 
up"

|--------------|-------------|-7-4h7p4-----------|-------------|-------------|-7-7-4----|
|---------5--7-|-5h7p5-------|----------7--5-----|--------5--7-|-5h7p5-------|-5-5-5--7-|
|-------4------|--------6--4-|----------------6--|------4------|--------6--4-|----------|
|-----6--------|-------------|-------------------|----6--------|-------------|----------|
|---4----------|-------------|-------------------|--4----------|-------------|----------|
|--------------|-------------|-------------------|-------------|-------------|----------|

but i'm waiting for you, i must go slow,  i must not think bad thoughts, what is this 
coming to?

|--------------|-------------|-7-4h7p4-----------|-------------|-------------|-7-7-4----|
|---------5--7-|-5h7p5-------|----------7--5-----|--------5--7-|-5h7p5-------|-5-5-5--7-|
|-------4------|--------6--4-|----------------6--|------4------|--------6--4-|----------|
|-----6--------|-------------|-------------------|----6--------|-------------|----------|
|---4----------|-------------|-------------------|--4----------|-------------|----------|
|--------------|-------------|-------------------|-------------|-------------|----------|

   both sides are right but both sides murder,  i give up, why can't theyyy?

|---4-4-4---4-4-4---4-4-4---4-4-4---4-4-4---4-4-4---4-4-4---4-4-4--|
|---7-7-7---5-5-5---7-7-7---5-5-5---7-7-7---5-5-5---7-7-7---5-5-5--|
|---4-4-4---4-4-4---4-4-4---4-4-4---4-4-4---4-4-4---4-4-4---4-4-4--|
|---6-6-6---6-6-6---6-6-6---6-6-6---6-6-6---6-6-6---6-6-6---6-6-6--|
|---4-4-4---4-4-4---4-4-4---4-4-4---4-4-4---4-4-4---4-4-4---4-4-4--|
|------------------------------------------------------------------|

   i must not think bad thoughtssssssssss    i must not think bad thoughtssssss

|---------------------------------------|---------------------------------------|
|---------------------------------------|---------------------------------------|
|---6-6-6-6--9-9-9-9--------------------|-6-6-6-6--9-9-9-9----------------------|
|---6-6-6-6--9-9-9-9---9-9-9-9-9-9-9-9--|-6-6-6-6--9-9-9-9---9-9-9-9-9-9-9-9-9--|
|---4-4-4-4--7-7-7-7---9-9-9-9-9-9-9-9--|-4-4-4-4--7-7-7-7---9-9-9-9-9-9-9-9-9--|
|----------------------7-7-7-7-7-7-7-7--|--------------------7-7-7-7-7-7-7-7-7--|


   i must not think bad thoughtssssssssss

|---------------------------------------|
|---------------------------------------|
|---6-6-6-6--9-9-9-9--------------------|
|---6-6-6-6--9-9-9-9---9-9-9-9-9-9-9-9--|
|---4-4-4-4--7-7-7-7---9-9-9-9-9-9-9-9--|
|----------------------7-7-7-7-7-7-7-7--|

bass fill:
G|-----------------------|
D|-----------------------|
A|-----------------------|
E|--12-12-10-10-8-8-7-7--|


     the civil wars, and the uncivilized wars, conflagrations leap out of every poor furnace
|--------------|-------------|-7-4h7p4-----------|-------------|-------------|-7-7-4----|
|---------5--7-|-5h7p5-------|----------7--5-----|--------5--7-|-5h7p5-------|-5-5-5--7-|
|-------4------|--------6--4-|----------------6--|------4------|--------6--4-|----------|
|-----6--------|-------------|-------------------|----6--------|-------------|----------|
|---4----------|-------------|-------------------|--4----------|-------------|----------|
|--------------|-------------|-------------------|-------------|-------------|----------|

  the food cooks poorly, and everyone goes hungry, from then on it's dog eat dog dog eat 
and bounty eat dog

|--------------|-------------|-7-4h7p4-----------|-------------|-------------|-7-7-4----|
|---------5--7-|-5h7p5-------|----------7--5-----|--------5--7-|-5h7p5-------|-5-5-5--7-|
|-------4------|--------6--4-|----------------6--|------4------|--------6--4-|----------|
|-----6--------|-------------|-------------------|----6--------|-------------|----------|
|---4----------|-------------|-------------------|--4----------|-------------|----------|
|--------------|-------------|-------------------|-------------|-------------|----------|

i can't go down there,  i can't understand it....

|---4-4-4---4-4-4---4-4-4---4-4-4---4-4-4---4-4-4---4-4-4---4-4-4--|
|---7-7-7---5-5-5---7-7-7---5-5-5---7-7-7---5-5-5---7-7-7---5-5-5--|
|---4-4-4---4-4-4---4-4-4---4-4-4---4-4-4---4-4-4---4-4-4---4-4-4--|
|---6-6-6---6-6-6---6-6-6---6-6-6---6-6-6---6-6-6---6-6-6---6-6-6--|
|---4-4-4---4-4-4---4-4-4---4-4-4---4-4-4---4-4-4---4-4-4---4-4-4--|
|------------------------------------------------------------------|

i'm a no good coward, and an american too,  A NORTH AMERICAN THAT IS

|---4-4-4---4-4-4---4-4-4---4-4-4---4-4-4---4-4-4---4-4-4---4-4-4--|
|---7-7-7---5-5-5---7-7-7---5-5-5---7-7-7---5-5-5---7-7-7---5-5-5--|
|---4-4-4---4-4-4---4-4-4---4-4-4---4-4-4---4-4-4---4-4-4---4-4-4--|
|---6-6-6---6-6-6---6-6-6---6-6-6---6-6-6---6-6-6---6-6-6---6-6-6--|
|---4-4-4---4-4-4---4-4-4---4-4-4---4-4-4---4-4-4---4-4-4---4-4-4--|
|------------------------------------------------------------------|

NOT A SOUTH OR A CENTRAL OR A NATIVE AMERICAN  what is this world coming to
                                                                      must not think bad thoughts
|---4-4-4---4-4-4---4-4-4---4-4-4---4-4-4---4-4-4---4-4-4---4-4-4--|
|---7-7-7---5-5-5---7-7-7---5-5-5---7-7-7---5-5-5---7-7-7---5-5-5--|
|---4-4-4---4-4-4---4-4-4---4-4-4---4-4-4---4-4-4---4-4-4---4-4-4--|
|---6-6-6---6-6-6---6-6-6---6-6-6---6-6-6---6-6-6---6-6-6---6-6-6--|
|---4-4-4---4-4-4---4-4-4---4-4-4---4-4-4---4-4-4---4-4-4---4-4-4--|
|------------------------------------------------------------------|

 i'm guilty of murder of innocent men, innocent women innocent children thousands of em
|---4-4-4---4-4-4---4-4-4---4-4-4---4-4-4---4-4-4---4-4-4---4-4-4--|
|---7-7-7---5-5-5---7-7-7---5-5-5---7-7-7---5-5-5---7-7-7---5-5-5--|
|---4-4-4---4-4-4---4-4-4---4-4-4---4-4-4---4-4-4---4-4-4---4-4-4--|
|---6-6-6---6-6-6---6-6-6---6-6-6---6-6-6---6-6-6---6-6-6---6-6-6--|
|---4-4-4---4-4-4---4-4-4---4-4-4---4-4-4---4-4-4---4-4-4---4-4-4--|
|------------------------------------------------------------------|

my planes my guns my money my soldiers, my blood on my hands, it's all my fault!

|---4-4-4---4-4-4---4-4-4---4-4-4---4-4-4---4-4-4---4-4-4---4-4-4--|
|---7-7-7---5-5-5---7-7-7---5-5-5---7-7-7---5-5-5---7-7-7---5-5-5--|
|---4-4-4---4-4-4---4-4-4---4-4-4---4-4-4---4-4-4---4-4-4---4-4-4--|
|---6-6-6---6-6-6---6-6-6---6-6-6---6-6-6---6-6-6---6-6-6---6-6-6--|
|---4-4-4---4-4-4---4-4-4---4-4-4---4-4-4---4-4-4---4-4-4---4-4-4--|
|------------------------------------------------------------------|

   i must not think bad thoughtssssssssss    i must not think bad thoughtssssss

|---------------------------------------|---------------------------------------|
|---------------------------------------|---------------------------------------|
|---6-6-6-6--9-9-9-9--------------------|-6-6-6-6--9-9-9-9----------------------|
|---6-6-6-6--9-9-9-9---9-9-9-9-9-9-9-9--|-6-6-6-6--9-9-9-9---9-9-9-9-9-9-9-9-9--|
|---4-4-4-4--7-7-7-7---9-9-9-9-9-9-9-9--|-4-4-4-4--7-7-7-7---9-9-9-9-9-9-9-9-9--|
|----------------------7-7-7-7-7-7-7-7--|--------------------7-7-7-7-7-7-7-7-7--|


   i must not think bad thoughtssssssssss

|---------------------------------------|
|---------------------------------------|
|---6-6-6-6--9-9-9-9--------------------|
|---6-6-6-6--9-9-9-9---9-9-9-9-9-9-9-9--|
|---4-4-4-4--7-7-7-7---9-9-9-9-9-9-9-9--|
|----------------------7-7-7-7-7-7-7-7--|


just repeat all this stuff with the next verses and you got the whole song

mmkay? mmkay
see ya
-Bertoast!!





Comments


Popular X tabs & chords
Worlds A Mess Chords
Los Angeles 1 Tabs
The Have Nots Tabs
We're Desperate Tabs
Worlds A Mess 1 Tabs
Year 1 Tabs
Fourth Of July Ukulele
See How We Are Ukulele
The Hungry Wolf Ukulele
Worlds A Mess Ukulele


Song lyrics



↑ Back to top | Tablatures and chords are parodies/interpretations of the original songs. You may use it for private study, scholarship, research or language learning purposes only
© 2014 AZChords.com Contact us | Privacy policy | DMCA | Add/correct tabs | Request tabs | Top 50 tabs