» »

X, Hot House Tabs (ver.1)

Artists:  A B C D E F G H I J K L M N O P Q R S T U V W X Y Z # 

Hot House Tabs (ver.1)

X Tabs
 Rating:
4/5 (4 votes)
Hot House lessons Tabs too difficult? Try these video lessons and learn fast
                alright this took me awhile its 98% right no tabs for this song
anywhere on the internet so i tabbed it myself cuz its my
favorite X song i know it looks cr*ppy but its right well 98% right
hb=hold bend mmkay

                             HOT HOUSE by X


intro:
|-----------------------------------------/12--12--12--12---10--10-----|
|--------------------------------10--8----/13--13--13--13---11--11-----|
|--------------------------------10--8----/12--12--12--12---10--10-----|
|----------------------------------------------------------------------|
|----9/10--10--12--10--13--10------------------------------------------|
|----7/8----8---8---8---8---8------------------------------------------|

|-------------------------------------------------------------------------|
|--------------------------------------12b--13---13hb--13rb---10----------|
|--------------------------------------12b-------12hb--12rb---10----------|
|---9/10--10--12--10----------10--10------------------------------12------|
|---7/8----8---8---8----10/12---------------------------------------------|
|-------------------------------------------------------------------------|


|-----------------------------------------/12--12--12--12---10--10-----|
|--------------------------------10--8----/13--13--13--13---11--11-----|
|--------------------------------10--8----/12--12--12--12---10--10-----|
|----------------------------------------------------------------------|
|----9/10--10--12--10--13--10------------------------------------------|
|----7/8----8---8---8---8---8------------------------------------------|


|-----------------------------------------------------------------|
|-------------------------------------12b--13---12b---13---12rb---|
|-------------------------------------12b-------12b--------12rb---|
|----9/10--10--12--10--------10--10-------------------------------|
|----7/8----8---8---8--10/12--------------------------------------|
|-----------------------------------------------------------------|


verse:

                            -  im  the  man  who wakes  up  in  the  middle  of  -

             pm[----------------------------------------------------------|
|-------------------------------------------------------------------------|
|-------------------------------------------------------------------------|
|-------------------------------------------------------------------------|
|-------------------------------------------------------------------------|
|-----9/10--10--10--10--10--10--10--10---10--10--10--10--10--10--10-------|
|-----7/8----8---8---8---8---8---8---8---8---8---8----8---8---8---8-------|

                                          -every  night


              pm[---------------------------------------------------------|
|-------------------------------------------------------------------------|
|-------------------------------------------------------------------------|
|-------------------------------------------------------------------------|
|-----9/10--10--12--10--10--10--12--10---10--10--12--10--10--10--12-------|
|-----7/8----8---8---8---8---8---8---8----8---8---8---8---8---8---8-------|
|-------------------------------------------------------------------------|


                -------my  legs  are  steamin  with  rain


             pm[----------------------------------------------------------|
|-------------------------------------------------------------------------|
|-------------------------------------------------------------------------|
|-------------------------------------------------------------------------|
|-------------------------------------------------------------------------|
|-----9/10--10--12--10--10--10--12--10---10--10--12--10--10--10--12-------|
|-----7/8----8---8---8---8---8---8---8----8---8---8---8---8---8---8-------|

                             ---beneath  the  cool  cool  tree

              pm[---------------------------------------------------------|
|-------------------------------------------------------------------------|
|-------------------------------------------------------------------------|
|-------------------------------------------------------------------------|
|-----9/10--10--10--10--10--10--10--10---10--10--10--10--10--10--10-------|
|-----7/8----8---8---8---8---8---8---8----8---8---8---8---8---8---8-------|
|-------------------------------------------------------------------------|

and just keep doing that until it gets to:


                     the  whole  world  loves  a  sad  song
            -
|-------------------------------------------------------------------------|
|-------------------------------------------------------------------------|
|-------------------------------------------------------------------------|
|-------------------------------------------------------------------------|
|-----9/10--10--12--10--10--10--12---10---10---10----12--10--10--10--12---|
|-----7/8----8---8---8---8---8---8----8----8-----8----8---8---8---8---8---|

---------------they  dont  have   to  siiiiiiiiiiiiinnnnnnnnnnnnnnnnnnnnnnggggg

|---------------------------------------------------------------------------------|
|---------------------------------------------------------------------------------|
|---------------------------------------------------------14b---12---14b---12-----|
|-----9/10--10--12--10--10--10--12---10---10---10---12----------------------------|
|-----7/8----8---8---8---8---8---8----8----8-----8----8---------------------------|
|---------------------------------------------------------------------------------|

            ----------  we   hide   in    the   hot   house

|--------------------------------------------------------------------------|
|--------------------------------------------------------------------------|
|--------------------------------------------------------------------------|
|---9/10--10---10--10--10--10--10--10--10---10--10--10--10--10--10--10-----|
|---7/8----8----8---8---8---8---8---8----8---8---8---8---8---8---8---8-----|
|---7/8----8----8---8---8---8---8---8----8---8---8---8---8---8---8---8-----|


|-----------------------|
|-----------------------|
|-----------------------|
|---7--7---9--9---10----|
|---5--5---7--7----8----|
|---5--5---7--7----8----|


                         loaded    with    thrills

|-----------------------|
|-----------------------|
|-----------------------|
|---7--7---9--9---10----|
|---5--5---7--7----8----|
|---5--5---7--7----8----|


im tired i'll do more later its 12:32 am this is pretty much all of it
i'll add the sit n save rant n rave part later

-bertman
            
Submit corrections

comments powered by Disqus
↑ Back to top | X Tabs for Hot House. Lyrics for acoustic guitar and electric guitar. Tablatures and chords are parodies/interpretations of the original songs. You may use it for private study, scholarship, research or language learning purposes only