>
 >
 >
Drunk In My Past

Drunk In My Past Guitar Tabs

X - Drunk In My Past chords, tabs, tablatures, lyrics

Guitar lessons | Add/correct | Request | Top 50 tabs Artists:  A B C D E F G H I J K L M N O P Q R S T U V W X Y Z 0-9

Drunk In My Past Guitar Tabs – X

CD, Sheet music, Poster

Do you like Drunk In My Past? Share with your friends now
Tabs
                              "DRUNK IN MY PAST" by -X-

|-------------------|--------------|----------------|
|-------------------|--------------|----------------|
|---7~~--4---2~~--4-|--7~~--4---2--|----------------|
|---7~~--4---2~~--4-|--7~~--4---2--|--2-2-2-2-2-2-2-|
|---5~~--2---0~~--2-|--5~~--2---0--|--0-0-0-0-0-0-0-|
|-------------------|--------------|----------------|

its the drunk in my past shuffling by like a train
|-------------------|--------------|----------------|
|-------------------|--------------|----------------|
|---7~~--4---2~~--4-|--7~~--4---2--|----------------|
|---7~~--4---2~~--4-|--7~~--4---2--|--2-2-2-2-2-2-2-|
|---5~~--2---0~~--2-|--5~~--2---0--|--0-0-0-0-0-0-0-|
|-------------------|--------------|----------------|

sounds on its track like a ride like a ride that don't last
|-------------------|--------------|----------------|
|-------------------|--------------|----------------|
|---7~~--4---2~~--4-|--7~~--4---2--|----------------|
|---7~~--4---2~~--4-|--7~~--4---2--|--2-2-2-2-2-2-2-|
|---5~~--2---0~~--2-|--5~~--2---0--|--0-0-0-0-0-0-0-|
|-------------------|--------------|----------------|

swears each drink is the last tells the same lie each night
|-------------------|--------------|----------------|
|-------------------|--------------|----------------|
|---7~~--4---2~~--4-|--7~~--4---2--|----------------|
|---7~~--4---2~~--4-|--7~~--4---2--|--2-2-2-2-2-2-2-|
|---5~~--2---0~~--2-|--5~~--2---0--|--0-0-0-0-0-0-0-|
|-------------------|--------------|----------------|

and breaks every promise til she makes me go crazy shes gonna drive me to drinking
|-------------------|--------------|----------------|
|-------------------|--------------|----------------|
|---7~~--4---2~~--4-|--7~~--4---2--|----------------|
|---7~~--4---2~~--4-|--7~~--4---2--|--2-2-2-2-2-2-2-|
|---5~~--2---0~~--2-|--5~~--2---0--|--0-0-0-0-0-0-0-|
|-------------------|--------------|----------------|

theres a drunk in my past the one who let me down who wasnt around when needed
|----------------2-|----------------2-|--------------------------------------|
|----------------2-|----------------2-|--------------------------------------|
|----------------3-|----------------3-|--------------------------------------|
|---5--5--5---4----|---5--5--5---4----|---5--5--5--4--4-4------------0-0-2-2-|
|---5--5--5---4----|---5--5--5---4----|---5--5--5--4--4-4--------2-2---------|
|---3--3--3---2----|-0-3--3--3---2----|-0-3--3--3--2--2-2-0--3-3-------------|

theres a drunk in my past who swears each drink is the last thought i give me another chance
|----------------2-|----------------2-|--------------------------------------|
|----------------2-|----------------2-|--------------------------------------|
|----------------3-|----------------3-|--------------------------------------|
|---5--5--5---4----|---5--5--5---4----|---5--5--5--4--4-4------------0-0-2-2-|
|---5--5--5---4----|---5--5--5---4----|---5--5--5--4--4-4--------2-2---------|
|---3--3--3---2----|-0-3--3--3---2----|-0-3--3--3--2--2-2-0--3-3-------------|

theres a drunk in my path each time i go past my house while trying to find my way home
|----------------2-|----------------2-|--------------------------------------|
|----------------2-|----------------2-|--------------------------------------|
|----------------3-|----------------3-|--------------------------------------|
|---5--5--5---4----|---5--5--5---4----|---5--5--5--4--4-4------------0-0-2-2-|
|---5--5--5---4----|---5--5--5---4----|---5--5--5--4--4-4--------2-2---------|
|---3--3--3---2----|-0-3--3--3---2----|-0-3--3--3--2--2-2-0--3-3-------------|

|-------------------|--------------|----------------|
|-------------------|--------------|----------------|
|---7~~--4---2~~--4-|--7~~--4---2--|----------------|
|---7~~--4---2~~--4-|--7~~--4---2--|--2-2-2-2-2-2-2-|
|---5~~--2---0~~--2-|--5~~--2---0--|--0-0-0-0-0-0-0-|
|-------------------|--------------|----------------|

do the next verse and chorus and then solo:

|------------|------------------|----------|---------------|
|------10----|------------------|----10----|---------------|
|---9b----9b-|--9b--7--9b--7----|-9b----9b-|-7-----9b--9~~-|
|------------|----------------9-|----------|----9----------|
|------------|------------------|----------|---------------|
|------------|------------------|----------|---------------|

|----------------|-----17-----|-------------------------|
|---------15--17-|-17b----17b-|-17b-----15h17--15-------|
|---14/16--------|------------|------15------------16~~-|
|----------------|------------|-------------------------|
|----------------|------------|-------------------------|
|----------------|------------|-------------------------|

|-------17-----|------------------|
|---17b----17b-|-15----17b-17~~~--|
|--------------|----16------------|
|--------------|------------------|
|--------------|------------------|
|--------------|------------------|

|------------|-----------|-----------------|--------------------------|
|------------|-----10----|-----------------|--------------------------|
|-------7--9-|-9b-----9b-|-9rb---7h9-7-----|--9h11-9--7--9--7---------|
|---7/9------|-----------|-----9-------9~~-|------------------9--7~~~-|
|------------|-----------|-----------------|--------------------------|
|------------|-----------|-----------------|--------------------------|

-BERToast





Comments


Popular X tabs & chords
In This House I Call Home Bass Tabs
Nausea Bass Tabs
Adult Books Chords
House I Call Home Chords
Beyond And Back Tabs
Real Child Of Hell Tabs
The Hungry Wolf Tabs
We're Desperate Tabs
Wild Thing Tabs
Worlds A Mess Ukulele


Song lyrics



↑ Back to top | Tablatures and chords are parodies/interpretations of the original songs. You may use it for private study, scholarship, research or language learning purposes only
© 2014 AZChords.com Contact us | Privacy policy | DMCA | Add/correct tabs | Request tabs | Top 50 tabs