» »

X, Blue Spark Tabs (ver.1)

Artists:  A B C D E F G H I J K L M N O P Q R S T U V W X Y Z # 

Blue Spark Tabs (ver.1)

X Tabs
 Rating:
3.8/5 (5 votes)
Blue Spark lessons Tabs too difficult? Try these video lessons and learn fast
                
         "BLUE SPARK" by -X-

                                                   blue
|-----------------------|----------------------|----------------------|
|-----------------------|----------------------|----------------------|
|-----------------------|----------------------|----------------------|
|--------5-5-5---5-5-5--|-------5-5-5---5-5-5--|-------5-5-5---5-5-5--|
|--------5-5-5---5-5-5--|-------5-5-5---5-5-5--|-------5-5-5---5-5-5--|
|---14/--3-3-3---3-3-3--|--14/--3-3-3---3-3-3--|--14/--3-3-3---3-3-3--|

   spark
|-----------------------|----------------------|----------------------|
|-----------------------|----------------------|----------------------|
|-----------------------|----------------------|----------------------|
|--------5-5-5---5-5-5--|-------5-5-5---5-5-5--|-------5-5-5---5-5-5--|
|--------5-5-5---5-5-5--|-------5-5-5---5-5-5--|-------5-5-5---5-5-5--|
|---14/--3-3-3---3-3-3--|--14/--3-3-3---3-3-3--|--14/--3-3-3---3-3-3--|

   he     waits in a beach             apartment
|---------------------------------|---------------------------|
|---------------------------------|---------------------------|
|---------7--9-----9--9-----------|--7--9-----9--9------------|
|---------7--9-----9--9-----------|--7--9-----9--9------------|
|---------7--7-----7--7-----------|--7--7-----7--7------------|
|---14/---0--0--0--0--0--0--0--0--|--0--0--0--0--0--0--0--0---|

|---------------------------------|---------------------------|
|---------------------------------|---------------------------|
|---------7--9-----9--9-----------|--7--9-----9--9------------|
|---------7--9-----9--9-----------|--7--9-----9--9------------|
|---------7--7-----7--7-----------|--7--7-----7--7------------|
|---14/---0--0--0--0--0--0--0--0--|--0--0--0--0--0--0--0--0---|

    blue spark
|---------------------|----------------|-----------------|---------------|
|---------------------|----------------|-----------------|---------------|
|---------------------|----------------|-----------------|---------------|
|--------5--5---5--5--|---5--5---5--5--|----5--5---5--5--|--5--5---5--5--|
|--------5--5---5--5--|---5--5---5--5--|----5--5---5--5--|--5--5---5--5--|
|---14/--3--3---3--3--|---3--3---3--3--|----3--3---3--3--|--3--3---3--3--|
 
what goes between the eyes downtownnnnnnn
|---------------------------------|---------------------------|
|---------------------------------|---------------------------|
|---------7--9-----9--9-----------|--7--9-----9--9------------|
|---------7--9-----9--9-----------|--7--9-----9--9------------|
|---------7--7-----7--7-----------|--7--7-----7--7------------|
|---14/---0--0--0--0--0--0--0--0--|--0--0--0--0--0--0--0--0---|

|---------------------------------|---------------------------|
|---------------------------------|---------------------------|
|---------7--9-----9--9-----------|--7--9-----9--9------------|
|---------7--9-----9--9-----------|--7--9-----9--9------------|
|---------7--7-----7--7-----------|--7--7-----7--7------------|
|---14/---0--0--0--0--0--0--0--0--|--0--0--0--0--0--0--0--0---|

  blue shock!   exchange!!!
|-----------------------|----------------------|------------------------------|
|-----------------------|----------------------|------------------------------|
|-----------------------|----------------------|------------------------------|
|--------5-5-5---5-5-5--|-------5-5-5---5-5-5--|--3--3--5--3--3--3--5--3------|
|--------5-5-5---5-5-5--|-------5-5-5---5-5-5--|--1--1--1--1--1--1--1--1------|
|---14/--3-3-3---3-3-3--|--14/--3-3-3---3-3-3--|------------------------------|

thousands of lives thousands of people she's forgotten him for the bodies around herrrrrrrr
|----------------------------|-------------------------------------------------|
|----------------------------|-------------------------------------------------|
|---7--7--7--7---------------|--5--5--5--5---7--7--7--7--7---7-7-7-7-7-7-7-7---|
|---7--7--7--7---7--7--7--7--|--5--5--5--5---7--7--7--7--7---7-7-7-7-7-7-7-7---|
|---5--5--5--5---7--7--7--7--|--3--3--3--3---5--5--5--5--5---5-5-5-5-5-5-5-5---|
|----------------5--5--5--5--|-------------------------------------------------|

    blue spark
|---------------------|----------------|-----------------|---------------|
|---------------------|----------------|-----------------|---------------|
|---------------------|----------------|-----------------|---------------|
|--------5--5---5--5--|---5--5---5--5--|----5--5---5--5--|--5--5---5--5--|
|--------5--5---5--5--|---5--5---5--5--|----5--5---5--5--|--5--5---5--5--|
|---14/--3--3---3--3--|---3--3---3--3--|----3--3---3--3--|--3--3---3--3--|

and that's all... just put in the other verses with  this stuffffffff

-bert," wee!"
            
Submit corrections

comments powered by Disqus
↑ Back to top | X Tabs for Blue Spark. Lyrics for acoustic guitar and electric guitar. Tablatures and chords are parodies/interpretations of the original songs. You may use it for private study, scholarship, research or language learning purposes only