» »

X, Back To The Base Tabs (ver.1)

Artists:  A B C D E F G H I J K L M N O P Q R S T U V W X Y Z # 

Back To The Base Tabs (ver.1)

X Tabs
 Rating:
4/5 (6 votes)
Back To The Base lessons Tabs too difficult? Try these video lessons and learn fast
1
                fun and easy song to play about a man who rides the wilshire bus



              "BACK TO THE BASE" by X



|---------------------------------------------|
|---------------------------------------------|
|---------------------------------------------|
|----9--7-7-----9--7-7-----9--7-7-----9--7-7--|
|--9-7--5-5---9-7--5-5---9-7--5-5---9-7--5-5--|
|--7----------7----------7----------7---------|

manonthebus,screaminboutpresley
-----------------------manonthebus,screaminboutpresley

|---------------------------------------------|
|---------------------------------------------|
|---------------------------------------------|
|----9--7-7-----9--7-7-----9--7-7-----9--7-7--|
|--9-7--5-5---9-7--5-5---9-7--5-5---9-7--5-5--|
|--7----------7----------7----------7---------|

alltiedupgotaknotnhishands
 ---------------------"presleysuckedondoggiedicks"

|---------------------------------------------|
|---------------------------------------------|
|---------------------------------------------|
|----9--7-7-----9--7-7-----9--7-7-----9--7-7--|
|--9-7--5-5---9-7--5-5---9-7--5-5---9-7--5-5--|
|--7----------7----------7----------7---------|

imthekingofrocknrollifyoudontlikeityoucanlumpit

|----------------------------------|
|----------------------------------|
|----------------------------------|
|--5-5-5-5-5-5-5-5-9-9-9-9-9-9-9-9-|
|--3-3-3-3-3-3-3-3-7-7-7-7-7-7-7-7-|
|----------------------------------|

|--------------------------|
|--------------------------|
|--------------------------|
|--5--7--5--7--5--7--5--7--|
|--3--5--3--5--3--5--3--5--|
|--------------------------|

ye gotta get me back to the base, ye gotta get me back to the base!

|----------------------------------------------------------|
|----------------------------------------------------------|
|----------------------------------------------------------|
|----------------------------------------------------------|
|--5-5-5-5-5-5-5-5-7-7-7-7-7-7-7-7-5-5-5-5-5-5-7-7-7-7-7-7-|
|--3-3-3-3-3-3-3-3-5-5-5-5-5-5-5-5-3-3-3-3-3-3-5-5-5-5-5-5-|


|---------------------------------------------|
|---------------------------------------------|
|---------------------------------------------|
|----9--7-7-----9--7-7-----9--7-7-----9--7-7--|
|--9-7--5-5---9-7--5-5---9-7--5-5---9-7--5-5--|
|--7----------7----------7----------7---------|



thats it just repeat this with the next few verses
-bertman

lyrics:
presleys been dead,the body means nothing
man the bus says presley sucked dicks
with a picture of little stevie
over his head
im in the back with a hole in my throat

"im the king of rock n roll,if you don't like it you can lump it"

"ye gotta get me back to the base,ye gotta get me back to the base"

man on the bus,screaming bout presley
tears a newspaper up in his hands
helicopter shoots down a militry spot
everyone runs from screaming bout presley
            
Submit corrections

comments powered by Disqus
↑ Back to top | X Tabs for Back To The Base. Lyrics for acoustic guitar and electric guitar. 1 Tablatures and chords are parodies/interpretations of the original songs. You may use it for private study, scholarship, research or language learning purposes only