» » »

Stillborn Tabs (ver.1)

Artists:  A B C D E F G H I J K L M N O P Q R S T U V W X Y Z # 

Stillborn Tabs (ver.1)

Wylde Zakk
Rating:
0/5 (0 votes)

Hard to play? Try these video lessons and learn fast.
                PROPS GO TO: Thrasher

Tuning (low to high) c-g-c-f-a-d


(intro/verse riff)
d|--------------------------|
a|--------------------------|
f|--------------------------|
c|--------------------------|
g|---------3*----------3*---|
c|-5-5-5-5-3*--5-5-5-5-3*---|

*natural harmonic


(pre-chorus riff)
d|-------------------------|-------------------------|
a|-------------------------|-------------------------|
f|-------------------------|-------------------------|
c|-------------------------|-------------------------|
g|-3--------3--------3-----|----3--------3-----3-----|
c|-3--3--3--3--3--3--3--3--|-3--3--3--3--3--3--3--3--|
PM....^..^.....^..^.....^....^.....^..^.....^.....^..

(chorus riff)
d|------------------|----------------------|
a|-------------4----|----------------------|
f|-------------3----|---5\7/5--5\7/5--3----|
c|-5------1----1----|----------------------|
g|-5------1---------|---3\5/3--3\5/3--1----|
c|-5------1---------|----------------------|

d|------------------|-------------------------|
a|-------------4----|-------------------------|
f|-------------3----|-------------------------|
c|-5------1----1----|-------------------------|
g|-5------1---------|-3--3--3--3--3--3--3--3--|
c|-5------1---------|-3--3--3--3--3--3--3--3--|
		 PM.^..^..^..^..^..^..^..^..

(solo w/heavy wah)
d|-------------|-------------|----------------|----------------|
a|-------------|-------------|----------------|----------------|
f|-------------|---------15/-|-----3-5-5b-----|--------5rb-3~--|
c|-353535353535|353535535----|-3-5------------|----------------|
g|-------------|-------------|----------------|----------------|
c|-------------|-------------|----------------|----------------| 

d|----------------------------|----------------------------15~-|
a|-------------------15h18p15-|-------------------15h18p15-----|
f|-------------14-17----------|-------------14-17--------------|
c|-------15-17----------------|-------15-17--------------------|
g|-15-17----------------------|-15-17--------------------------|
c|----------------------------|--------------------------------|

d|-15h18p15----15~-15h1815---|15~-18b-15h17h18p17h18p17------|
a|---------18b------------18b|-------------------------18b~--|
f|---------------------------|-------------------------------|
c|---------------------------|-------------------------------|
g|---------------------------|-------------------------------|
c|---------------------------|-------------------------------|

d|-----------------------|-------------------|
a|-------3h6-----3h6-----|-------------------|
f|-5b-------5b------5b---|-----5-5-5-5-5-3~--|
c|-----------------------|-------------------|
g|-----------------------|-------------------|
c|-----------------------|-------------------|

d|----356---568----6810-----81011|-------101113------131517-15h18p17p15------|
a|-356---568---6810----81011-----|-101113------131517------------------18b~--|
f|-------------------------------|-------------------------------------------|
c|-------------------------------|-------------------------------------------|
g|-------------------------------|-------------------------------------------|
c|-------------------------------|-------------------------------------------|

The solo is REALLY wrong, but some parts of it sound good....
just jam out, because you probably can't play it as good as Zakk Wylde can...
            
Hard to play? Try these video lessons and learn fast. | Correct




comments powered by Disqus
↑ Back to top | Tablatures and chords are parodies/interpretations of the original songs. You may use it for private study, scholarship, research or language learning purposes only