>
 >
Bleed For Me

Bleed For Me Guitar Tabs

Wylde Zakk - Bleed For Me chords, tabs, tablatures, lyrics

Guitar lessons | Add/correct | Request | Top 50 tabs Artists:  A B C D E F G H I J K L M N O P Q R S T U V W X Y Z 0-9

Bleed For Me Guitar Tabs – Wylde Zakk

CD, Sheet music, Poster

Do you like Bleed For Me? Share with your friends now
Tabs
PROPS GO TO: Thrasher

Tuning (low to high) cgcfad

(intro)
d|---------------------------------|---------------------------------|
a|---------------------------------|---------------------------------|
f|---------------------------------|---------------------------------|
c|---------------------------------|---------------------------------|
g|---------------------------------|-----------------x-3-5-3---3-----|
c|-x-0-0-0-0-0-0-0-x-0-0-0-0-0-0-0-|-x-0-0-0-0-0-0-0---------6---6-3-|
(heavy palm muting)

d|---------------------------------|---------------------------------|
a|---------------------------------|---------------------------------|
f|---------------------------------|---------------------------------|
c|---------------------------------|-------------------------3~------|
g|---------------------------------|-------------------------3~------|
c|-x-0-0-0-0-0-0-0-x-0-0-0-0-0-0-0-|-x-0-0-0-0-0-0-0-x-0-0-0---------|

(verses have a half-time feel)
d|----------------------------------|
a|----------------------------------|
f|----------------------------------|
c|-------------------------4\6--6~--|
g|-0-----5-----3-----5--------------|
c|-0-0-0-5-0-0-3-0-0-5-0-0-4\6--6~--|
PM...^.^...^.^...^.^...^.^..........

(choruses have a half-time feel)
d|-----------------------------------|-----------------------------------|
a|-----------------------------------|-----------------------------------|
f|-7-------12--10-----9\10/9--5------|-7-------12--10-----9\10/9--3------|
c|-----------------------------------|-----------------------------------|
g|-5-------10---8-----7\ 8/7--3------|-5-------10---8-----7\ 8/7--1------|
c|-0~--------------------------------|-0~--------------------------------|

(solo w/wah, lightning fast)
d|-------------------------------------|	   |---------------|
a|-------------------10-12-13-10-12-13-|	   |-13b~--(rb13)--|
f|-10-12-13-10-12-13-------------------|-6 times-|---------------|
c|-------------------------------------|	   |---------------|
g|-------------------------------------|	   |---------------|
c|-------------------------------------| 	   |---------------|

d|-15-13-10-15-13-10--------------------------------------------|
a|-------------------15-13-10-15-13-10--------------------------|
f|-------------------------------------13-12-10-13-12-10--------|-3 times-
c|-------------------------------------------------------12~----|
g|--------------------------------------------------------------|
c|--------------------------------------------------------------|

d|-------------------------|-------------------------|
a|-------------------------|---some insane bending---|
f|-12b-----------(rb)-10~--|-------------------------|
c|-------------------------|-------------------------|
g|-------------------------|-------------------------|
c|-------------------------|-------------------------|

d|----------------------------|-----------------------------------------|
a|-10b-10--13b-13-10b-10-13b~-|-10b-10--13b-13101310--------------------|
f|----------------------------|----------------------13/12-10-12b-10~---|
c|----------------------------|-----------------------------------------|
g|----------------------------|-----------------------------------------|
c|----------------------------|-----------------------------------------|


that's it, his solos suck to write out...





Comments


Popular Wylde Zakk tabs & chords
Road Back Home Chords
Sweet Jesus Chords
What Youre Lookin For Chords
Between Heaven And Hell Tabs
Between Heaven And Hell 1 Tabs
Machinegun Man Tabs
The Things You Do Tabs
The Things You Do 1 Tabs
Way Beyond Empty Tabs
Way Beyond Empty 1 Tabs


Song lyrics



↑ Back to top | Tablatures and chords are parodies/interpretations of the original songs. You may use it for private study, scholarship, research or language learning purposes only
© 2014 AZChords.com Contact us | Privacy policy | DMCA | Add/correct tabs | Request tabs | Top 50 tabs