>
 >
 >
Hhh The Game

Hhh The Game Guitar Tabs

Wwf - Hhh The Game chords, tabs, tablatures, lyrics

Guitar lessons | Add/correct | Request | Top 50 tabs Artists:  A B C D E F G H I J K L M N O P Q R S T U V W X Y Z 0-9

Hhh The Game Guitar Tabs – Wwf

CD, Sheet music, Poster

Do you like Hhh The Game? Share with your friends now
Tabs
This file is © of Paul Tab Productions. 
This is played by two guitarists, but here is the lead guitar tab

~ = Bend string up
 = Slide up
 = Slide Down
X = Palm Mute
* = Press onto

1st GUITAR

INTRO

E:     --------------------------------------------------------------------------------------
B:     --------------------------------------------------------------------------------------
G:     --------------------------------------------------------------------------------------
D:     -----2-------------------2--------------------2-----2--------------------2----------
A:     -----2-------------------2--------------------2-----2--------------------2----------
E:     ---------------------------------------------------------------------------------------

E:     --------------------------------------------------------------------------------------
B:     --------------------------------------------------------------------------------------
G:     -------------------------------------------------------------------------------------
D:     ----2---2---2----------2---2---2--------------2---2---2----------2---2---2-----
A:     ----2---2---2----------2---2---2--------------2---2---2----------2---2---2-----
E:     --------------------------------------------------------------------------------------

E:     ----------------------------------------------------------------------------------------------------
B:     ----------------------------------------------------------------------------------------------------
G:     ----------------------------------------------------------------------------------------------------
D:     ----2---2---2----------2---2---2--------------2---2---2----------2---2---2--------------------
A:     ----2---2---2----------2---2---2--------------2---2---2----------2---2---2--------------------
E:     -------------------------------------------------------------------------------------------8<0-----

Main Riff

E:     --------------------------------------------------------------------------------
B:     --------------------------------------------------------------------------------
G:     --------------------------------------------------------------------------------
D:     --------------------------------------------------------------------------------
A      -------------------------------3---2------------------------------3---2-------
E:     -----0---0---3---2---0---0-----------0---0---3---2---0---0----------------

E:     --------------------------------------------------------------------------------
B:     --------------------------------------------------------------------------------
G:     --------------------------------------------------------------------------------
D:     --------------------------------------------------------------------------------          Riff played two times.
A      -------------------------------3---2-------------------------------------------
E:     -----0---0---3---2---0---0-----------0---0---3---2-------------------------

  Look over your shoulder!

E:     ------------------------------------------
B:     ------------------------------------------
G:     ------------------------------------------ 
D:     ------------------------------------------                   Riff played four times
A:     ----------------------0------------------
E:     -----0----------3----------0-----3-----2


SOLO:

E:     ----------------------------------------------------
B:     ----------------------------------------------------
G:     ----------------------------------------------------
D:     -----2---2---2------------------------------------
A:     -----2---2---2---1---------------1~-------------  Play riff twice
E:     -----------------------0---0---0--------3--------

E:     ------------------------------------------------------------------------------------
B:     ------------------------------------------------------------------------------------
G:      ------------------------------------------------------------------------------------
D:     ------------------------------------------------------------------------------------     Play riff twice
A:     ------------------1----------------1~----------------------1---------------1~----
E:     -----0---0---0-------0---0---0---------5---0---0---0--------0---0---0--------3   

Back to verse

  
E:     --------------------------------------------------------------------------------------
B:     --------------------------------------------------------------------------------------
G:     -------------------------------------------------------------------------------------
D:     ----2---2---2----------2---2---2--------------2---2---2----------2---2---2-----
A:     ----2---2---2----------2---2---2--------------2---2---2----------2---2---2-----
E:     --------------------------------------------------------------------------------------

E:     ----------------------------------------------------------------------------------------------------
B:     ----------------------------------------------------------------------------------------------------
G:     ----------------------------------------------------------------------------------------------------
D:     ----2---2---2----------2---2---2--------------2---2---2----------2---2---2--------------------
A:     ----2---2---2----------2---2---2--------------2---2---2----------2---2---2--------------------
E:     -------------------------------------------------------------------------------------------8<0-----


E:     --------------------------------------------------------------------------------
B:     --------------------------------------------------------------------------------
G:     --------------------------------------------------------------------------------
D:     --------------------------------------------------------------------------------
A      -------------------------------3---2------------------------------3---2-------
E:     -----0---0---3---2---0---0-----------0---0---3---2---0---0----------------

E:     --------------------------------------------------------------------------------
B:     --------------------------------------------------------------------------------
G:     --------------------------------------------------------------------------------
D:     --------------------------------------------------------------------------------          Riff played two times.
A      -------------------------------3---2-------------------------------------------
E:     -----0---0---3---2---0---0-----------0---0---3---2-------------------------



E:     -----------------------------------------------
B:     -----------------------------------------------
G:     ------------------------------------------ -----
D:     ------------------------------------------ -----                Riff played four times
A:     ----------------------0-----------------------
E:     -----0----------3----------0-----3-----2-----


OUTRO

E:     ---------------------------------------------------------------------------------------------------------------
B:     ---------------------------------------------------------------------------------------------------------------
G:     ---------------------------------------------------------------------------------------------------------------
D:     ----2---2---2--------------------2---2---2----------------------2---2---2-------------2---2---2----------
A:     ----2---2---2---1---------------2---2---2---1------------------2---2---2---0---------2---2---2---0-----
E:     ---------------------------------------------------------------------------------------------------------------

E:     ---------------------------------------------------------------------------------------------------------------
B:     ---------------------------------------------------------------------------------------------------------------
G:     -------------------------------------------------------------------------------------------------------------------
D:     --------2---2---2--------------2---2---2------------------2---2---2--------------2---2---2--------------------  
A:     --------2---2---2---1---------2---2---2---1--------------2---2---2---0--------- 2---2---2---0--------------
E:     ----------------------------------------------------------------------------------------------------------8<0-----

This is played a whole bunch of times until the song finishes.





Comments


Popular Wwf tabs & chords
Acolytes Tabs
D-X Theme Song 1 Tabs
Dx 2 Tabs
Easy Wwf Theme Songs Tabs
Hhh The Game V Tabs
Lita Tabs
Raw Is War Tabs
The Rock Tabs
Undertakers Old Theme Song Tabs
Y2j And Rock Themes Tabs


Song lyrics



↑ Back to top | Tablatures and chords are parodies/interpretations of the original songs. You may use it for private study, scholarship, research or language learning purposes only
© 2014 AZChords.com Contact us | Privacy policy | DMCA | Add/correct tabs | Request tabs | Top 50 tabs