» » »

Dx Tabs (ver.2)

Artists:  A B C D E F G H I J K L M N O P Q R S T U V W X Y Z # 

Dx Tabs (ver.2)

Wwf
Rating:
0/5 (0 votes)

Hard to play? Try these video lessons and learn fast.
                Tuning:
e |------------------------------------------------------------|
b |------------------------------------------------------------|
g |------------------------------------------------------------|  repeat till 
d |------------------------------------------------------------|  "break it down"
a |------4------4-6-6-6-6-------4-----1-2-2-2-1----------------|
eb|0-0-0---0-0-0---------0-0-0----0-0--------------------------|

|--------------------------------------------------------------|
|--------------------------------------------------------------|
|--------------------------------------------------------------|
|--------------------------------------------------------------|
|6-4-6--1-2-1--------------------------------------------------|
|-------------2-3-2-0------------------------------------------|

There ya go. easy song. Took me 15 min. at most. Enjoy.
            
Hard to play? Try these video lessons and learn fast. | Correct




comments powered by Disqus
↑ Back to top | Tablatures and chords are parodies/interpretations of the original songs. You may use it for private study, scholarship, research or language learning purposes only