» » »

Wwf, Degeneration X Tabs (ver.1)

Artists:  A B C D E F G H I J K L M N O P Q R S T U V W X Y Z # 

Degeneration X Tabs (ver.1)

Wwf Tabs
 Rating:
4/5 (4 votes)
Degeneration X lessons Tabs too difficult? Try these video lessons and learn fast
                Title-Degeneration X
Artist-Chris Warren and the Degeneration X Band
Album-WWF The Music - Volume 3...Also on the bands self titled CD.
Author-Mike Williams

Tuning-Tune each string a half-step down.


Notes-This is the real thing, unlike other imatations out there. Tuning
is right, just play along with the song, and if it doesn't ring
together, tune it down just a little more. If you need any help, just
watch them play it live. You get a really good feel for it. Play the
beginning with ringing overdrive, then play the rest with overdrive
distortion. 



       I N T R O
Eb :--------------------|----------------------|--------------------|
Bb :--------------------|----------------------|--------------------|
Gb :--------------------|----------------------|--------------------|
Db :--------------------|----------------------|--------------------|
Ab :----5------5-7-7-7-7|----5------2-2-3-3-2-2|----5------5-7-7-7-7|
Eb :0-0----0-0----------|0-0----0-0------------|0-0----0-0----------|

Eb :----------------------|--------------------|----------------------|
Bb :----------------------|--------------------|----------------------|
Gb :----------------------|--------------------|----------------------|
Db :----------------------|--------------------|----------------------|
Ab :----5------2-2-3-3-2-2|----5------5-7-7-7-7|----5------2-2-3-3-2-2|
Eb :0-0----0-0------------|0-0----0-0----------|0-0----0-0------------|

                        | END OF INTRO         | V E R S E
Eb :--------------------|----------------------|--------------------|
Bb :--------------------|----------------------|--------------------|
Gb :--------------------|----------------------|--------------------|
Db :--------------------|----------------------|--------------------|
Ab :----5------5-7-7-7-7|----5------2-2-3-3-2-2|----5------5-7-7-7-7|
Eb :0-0----0-0----------|0-0----0-0------------|0-0----0-0----------|

Eb :----------------------|--------------------|----------------------|
Bb :----------------------|--------------------|----------------------|
Gb :----------------------|--------------------|----------------------|
Db :----------------------|--------------------|----------------------|
Ab :----5------2-2-3-3-2-2|----5------5-7-7-7-7|----5------2-2-3-3-2-2|
Eb :0-0----0-0------------|0-0----0-0----------|0-0----0-0------------|

                                               |C H O R U S
Eb :--------------------|----------------------|------------------|
Bb :--------------------|----------------------|------------------|
Gb :--------------------|----------------------|------------------|
Db :--------------------|----------------------|------------------|
Ab :----5------5-7-7-7-7|----5------2-2-3-3-2-2|*-7-5-7--2--3-----|
Eb :0-0----0-0----------|0-0----0-0------------|0-------------2-3-|

Eb :------------------|------------------|------------------|
Bb :------------------|------------------|------------------|
Gb :------------------|------------------|------------------|
Db :------------------|------------------|------------------|
Ab :--7-5-7--3--2-----|*-7-5-7--2--3-----|--7-5-7--3--2-----|
Eb :0-------------3---|0-------------2-3-|0-------------3---|


   | B R E A K
Eb
:----------------|----------------|----------------|----------------|
Bb
:----------------|----------------|----------------|----------------|
Gb
:----------------|----------------|----------------|----------------|
Db
:----------------|----------------|----------------|----------------|
Ab
:2--2-*----------|2--2-*----------|2--2-*----------|2--2-*----------|
Eb
:0--0-*----------|0--0-*----------|0--0-*----------|0--0-*----------|

   |V E R S E
Eb :--------------------|----------------------|--------------------|
Bb :--------------------|----------------------|--------------------|
Gb :--------------------|----------------------|--------------------|
Db :--------------------|----------------------|--------------------|
Ab :----5------5-7-7-7-7|----5------2-2-3-3-2-2|----5------5-7-7-7-7|
Eb :0-0----0-0----------|0-0----0-0------------|0-0----0-0----------|

                          |C H O R U S
Eb :----------------------|------------------|------------------|
Bb :----------------------|------------------|------------------|
Gb :----------------------|------------------|------------------|
Db :----------------------|------------------|------------------|
Ab :----5------3-2-3-3-2-2|*-7-5-7--2--3-----|--7-5-7--3--2-----|
Eb :0-0----0-0------------|0-------------2-3-|0-------------3---|

                                         |B R E A K
Eb :------------------|------------------|----------------|
Bb :------------------|------------------|----------------|
Gb :------------------|------------------|----------------|
Db :------------------|------------------|----------------|
Ab :*-7-5-7--2--3-----|--7-5-7--3--2-----|2--2-*----------|
Eb :0-------------2-3-|0-------------3---|0--0-*----------|

Eb :----------------|----------------|----------------|
Bb :----------------|----------------|----------------|
Gb :----------------|----------------|----------------|
Db :----------------|----------------|----------------|
Ab :2--2-*----------|2--2-*----------|2--2-*----------|
Eb :0--0-*----------|0--0-*----------|0--0-*----------|
            
Submit corrections

comments powered by Disqus
↑ Back to top | Wwf Tabs for Degeneration X. Lyrics for acoustic guitar and electric guitar. Tablatures and chords are parodies/interpretations of the original songs. You may use it for private study, scholarship, research or language learning purposes only