» » »

Woods Of Ypres, Suicide Cargoload (Drag That Weight!) Tabs (ver.1)

Artists:  A B C D E F G H I J K L M N O P Q R S T U V W X Y Z # 

Suicide Cargoload (Drag That Weight!) Tabs (ver.1)

Woods Of Ypres Tabs
 Rating:
4/5 (4 votes)
Suicide Cargoload (Drag That Weight!) lessons Tabs too difficult? Try these video lessons and learn fast
                Band: Woods of Ypres


C# Standard Tuning
C#-F#-B-E-G#-C#

x = Muted note
b = Bend
~ = Vibrato
h = Hammer On
p = Pull off
* = Let Ring
/ = Slide Up
\ = Slide Down

Intro
C#|-------------------------------------------------------------------|
G#|-------------------------------------------------------------------|
E |-------------------------------------------------------------------|
B |-------------------------------------------------------------------|
F#|----------------------------------------------------------3-2-3-2--|
C#|-0/14\0--6p5-5~--5-5-5\3--3h5-1--1/6-6p5-5~--5-5-5\3--3h5-1-0-1-0--|

The verse part is the same, but with the second guitar playing a 5th higher:

Drag that f**kin' weight man,
Drag that weight and breathe
Pull that f**kin' anchor across the rocks, push that mountain into the sea
C#|-------------------------------------------------------------------|
G#|-------------------------------------------------------------------|
E |-------------------------------------------------------------------|
B |-------------------------------------------------------------------|
F#|---------8p7-7~--7-7-7\5--5h7-3--3/8-8p7-7~--7-7-7\5--5h7-3-2-3-2--|
C#|----------------------------------------------------------1-0-1-0--|

Next part (prechorus riff, I guess):

Drag that Weight! Over Foreign Landscapes! Drag that Weight!
C#|-------------------------------------------------------------------|
G#|-------------------------------------------------------------------|
E |-------------------------------------------------------------------|
B |-------------------------------------------------------------------|
F#|--5-3-5/7-7--5-3-5/7-7-5\3-3---5-3-5/7-7--5-3-5/7-7-5\3-3----------|
C#|--3-1-3/5-5--3-1-3/5-5-3\1-1---3-1-3/5-5--3-1-3/5-5-3\1-1----------|

Next riff is the same thing, but with palm mutes, you can figure it out.

Chorus:

Like a 10 ton stone statue, standing before miles of mountains
In a foreign land, where you don't speak the language there

Here's the chords for the rhythm part
C#|------------------------------|
G#|------------------------------|
E |------------------------------|
B |--7----10---5----3------------|
F#|--7----10---5----3------------|
C#|--5----8----3----1------------|

Lead part
C#|------------------------------|
G#|--10---13---8----6------------|
E |--9----12---7----5------------|
B |--7----10---5----3------------|
F#|------------------------------|
C#|------------------------------|

The next verse starts with the intro, but a fifth up, so the same thing as the second 
guitar in the first verse.
The following riff is a fifth up of the prechorus riff, so the same thing, but 1 string 
and 2 frets higher.

I feel so heavy man... So I drag that weight!
And I drag that weight over foreign landscapes

Drag that f**kin' weight man,
Drag that weight and breathe
Pull that f**kin' anchor across the rocks, push that mountain into the sea

Ending riff:
C#|-------------------------------------------------------------------|
G#|-------------------------------------------------------------------|
E |-------------------------------------------------------------------|
B |-------------------------------------------------------------------|
F#|--5/6\5-3--5/6\5-3--3-2-3-2----5/6\5-3--5/6\5-3-2------------------|
C#|--3/4\3-1--3/4\3-1--1-0-1-0----3/4\3-1--3/4\3-1-0----0-0-----------|
            
Submit corrections

comments powered by Disqus
↑ Back to top | Woods Of Ypres Tabs for Suicide Cargoload (Drag That Weight!). Lyrics for acoustic guitar and electric guitar. Tablatures and chords are parodies/interpretations of the original songs. You may use it for private study, scholarship, research or language learning purposes only