» » »

Wonder Stevie, My Cherie Amour Bass tabs (ver.1)

Artists:  A B C D E F G H I J K L M N O P Q R S T U V W X Y Z # 

My Cherie Amour Bass tabs (ver.1)

Wonder Stevie Tabs
 Rating:
4/5 (4 votes)
My Cherie Amour lessons Tabs too difficult? Try these video lessons and learn fast
1
                "(1)
Stevie Wonder - My Cherie Amour (bass)

bass performed by James Jamerson

la la la
G |-----------------------|------
D |-----------------------|------
A |-------2--2-2-2-2-22-4-|-4-4--
E |-2-2-2-----------------|------repeat 1st bar

the notes between brackets are softly played in fast manner
my cherie amour...
G |----------------------------------------------
D |-------------------4--------------------------
A |----4--4--(242-)------------------------------
E |-4--------(---4)2-----(456)7--7---(456)-4--4--

my cherie amour...
G |---------------------------------------------
D |---------------------------------------------
A |-2-4--4--(242-)------------2--2--------------
E |---------(---4)2--2-2-2--2--------(456)-4--4-

my cherie amour...
G |--------------------------4---------------------------------------------
D |------4-----------------------------------------------------------------
A |-4--------------------1-2----2-0-1--1-1--5-6-----(6--)------3-4-4--4---4
E |--4-2----2-2-3-4--4--------------------------6-6-(-64)-4--4----------4--

in a café...
G |--------------------------------------------
D |--------------------4-----------------------
A |-------2-4--4--------------2--2-------------
E |-4------------4-3-2------4----------6-4--4--

i lay near you...
G |-------------------------------------------
D |------------------4--4---------------------
A |-2-4--4----4-----------4-2--2--------------
E |--------4----4-2----------------(456)-4--4-

my cherie amour...
G |------------------------------------------------------------------------
D |-4-----4-----4-6---6-6-----9--9-9-----8-8---------------------------------
A |--4----------------------------------------5--6--6---(6--)------3-4-4--4---4
E |----2------2-----------6-7---------6---------------6-(-64)-4--4----------4--

lalala-part (begin with last bar)

may be someday...
G |---------------------------------------------------
D |---------------------------------------------------
A |-0-0-5-5--(5----------3--3---------------------------------
E |------------53)3--3--5------(567)5---5----------------------------

may be someday...
G |---------------------------------------------------
D |---------5--5----------------------------------------
A |-3-5--5--------------3---3------------------------------
E |---------------3----5-------(567)5---5-----------------------

my cherie amour...
G |-------------------------------4-----------------------------------
D |---5-------------------------------------2-------------------------
A |-5-----------------2-3--3--3-2----2--------------------5--5--5-5-5-
E |-----3--3-4-5--5--------------------2-0----0-4-5--5--5-------------

outro lalala-part repeat until fade
G |---------------------------
D |-----5-5-5-----------------
A |-5-5-------3--3-3-3-3-33-5-
E |---------------------------
"            
Submit corrections

comments powered by Disqus
↑ Back to top | Wonder Stevie Bass for My Cherie Amour. Lyrics for acoustic guitar and electric guitar. 1 Tablatures and chords are parodies/interpretations of the original songs. You may use it for private study, scholarship, research or language learning purposes only