» » »

Wonder Stevie, I Was Made To Love Her Bass tabs (ver.1)

Artists:  A B C D E F G H I J K L M N O P Q R S T U V W X Y Z # 

I Was Made To Love Her Bass tabs (ver.1)

Wonder Stevie Tabs
Rating:
0/5 (0 votes)
I Was Made To Love Her lessons Tabs too difficult? Try these video lessons and learn fast
                "(1)
Stevie Wonder - I was made to love her

Intro
E|---------------------------------|----------------------------------|
A|-8-------------------------------|-8---------------------------10-8-|
D|-----10--10--12------12--10--12--|-----10--10--12------12--10-------|
G|---------------1010--------------|---------------1010---------------|

E|------8----587-6--------1-4-------------------|
A|---5---5678-------8----1----3-4-----5-6-----8-|
G|--------------------1-1---------3-6-----5-8---|
D|----------------------------------------------|

E|---------------------------------|
A|-8-------------------------------|
D|-----10--10--12------12--10--12--|
G|---------------1010--------------|

  I was born...
E|-----------5-8--6-------6-4-------------------|
A|-8--8-6-7-8-------8-7-6-----3-4-----5-6-----8-|
D|--------------------------------3-6-----5-8---|
G|----------------------------------------------|

E|----------------------------|
A|-8--------------------------|
D|-----10--10--12------12--10-|
G|---------------1010---------|

  I wore high-top...
E|-----------5-----------------------------------|
A|-10-8-8--53-53--032-1------1-3-4-----5-6-----8-|
D|--------------23-----321-1-------3-6-----5-8---|
G|-----------------------------------------------|

E|----------------------------|
A|-8--------------------------|
D|-----10--10--12------12--10-|
G|---------------1010---------|

  You know papa...
E|---------5-8-----587-6------4-------------------|
A|-10-8-8-8-5--5678-----876-6---3-4-----5-6-----8-|
D|----------------------------------3-6-----5-8---|
G|------------------------------------------------|

E|----------------------------|
A|-8--------------------------|
D|-----10--10--12------12--10-|
G|---------------1010---------|

  Don't you know...
E|------------8----587-6-----4-6-------------------|
A|-10--8-8--5--5678------876-----3-4-----5-6-----8-|
D|-----------------------------------3-6-----5-8---|
G|-------------------------------------------------|

E|----------------------------|
A|-8--------------------------|
D|-----10--10--12------12--10-|
G|---------------1010---------|

  She's been...
E|----------5-8----587-6----6-4-6------------------|
A|-10-8-8-8--5-5678------876------3-4-----56-----8-|
D|------------------------------------3-6----5-8---|
G|-------------------------------------------------|

E|----------------------------|
A|-8--------------------------|
D|-----10--10--12------12--10-|
G|---------------1010---------|

  Like a sweet...
E|----------------------------4-6------------------|
A|-10--8--8--53053--032-1---------3-4-----56-----8-|
D|----------------23------321---------3-6----5-8---|
G|-------------------------------------------------|

E|----------------------------|
A|-8--------------------------|
D|-----10--10--12------12--10-|
G|---------------1010---------|

  I know that my baby...
E|------------8-----587-6----6-4-6-----------------|
A|-10--8-8--5--5678-------876-----3-4-----56-----8-|
D|------------------------------------3-6----5-8---|
G|-------------------------------------------------|

E|----------------------------|
A|-8--------------------------|
D|-----10--10--12------12--10-|
G|---------------1010---------|

  I was made to love her...
E|------------8-----587-6-----4-6------------------|
A|-10--8-8--5--5678-------876-----3-4-----56-----8-|
D|------------------------------------3-6----5-8---|
G|-------------------------------------------------|

E|----------------------------|
A|-8--------------------------|
D|-----10--10--12------12--10-|
G|---------------1010---------|

Bridge:

E|----56-7-8---------5-6-78-------5-5--5--6-6-78----5-6-7-8----|
A|-8-8----5--6-7-8-88------5-6-78----------------8-----5---5-67|
D|-------------------------------------------------------------|
G|-------------------------------------------------------------|

  My baby loves me...
E|--------8----587-6----6-4-6-----------------|
A|8--8--5----78-----876------3-4-----56-----8-|
D|-------------------------------3-6----5-8---|
G|--------------------------------------------|

E|----------------------------|
A|-8--------------------------|
D|-----10--10--12------12--10-|
G|---------------1010---------|

  I was knee-high...
E|----------5---8----7-6----6-4-6------------------|
A|-10--8--8---5---8-----876-------3-4-----56-----8-|
D|------------------------------------3-6----5-8---|
G|-------------------------------------------------|

E|----------------------------|
A|-8--------------------------|
D|-----10--10--12------12--10-|
G|---------------1010---------|

  Even if the mountain...
E|-----------5---------------1-------------------|
A|-10-8-8--53-53--032-1-----1--3-4-----5-6-----8-|
D|--------------23-----321-1-------3-6-----5-8---|
G|-----------------------------------------------|

E|----------------------------|
A|-8--------------------------|
D|-----10--10--12------12--10-|
G|---------------1010---------|

  'cause I was made...
E|----------5-8----587-6----6-456------------------|
A|-10-8-8-8--5-5678------876------3-4-----56-----8-|
D|------------------------------------3-6----5-8---|
G|-------------------------------------------------|

E|----------------------------|
A|-8--------------------------|
D|-----10--10--12------12--10-|
G|---------------1010---------|

  I was made to...
E|------------8-----587-6-----6-4------------------|
A|-10--8-8--5--5678-------876-----3-4-----56-----8-|
D|------------------------------------3-6----5-8---|
G|-------------------------------------------------|

E|----------------------------|
A|-8--------------------------|
D|-----10--10--12------12--10-|
G|---------------1010---------|

  Ooh, baby, I was...
E|----------5-8----587-6-----6-4-------------------|
A|-10-8-8-8--5-5678------876------3-4-----56-----8-|
D|------------------------------------3-6----5-8---|
G|-------------------------------------------------|
"            

comments powered by Disqus
↑ Back to top | Wonder Stevie Bass for I Was Made To Love Her. Lyrics for acoustic guitar and electric guitar. Tablatures and chords are parodies/interpretations of the original songs. You may use it for private study, scholarship, research or language learning purposes only