» » »

Wonder Stevie, Black Man Bass tabs (ver.1)

Artists:  A B C D E F G H I J K L M N O P Q R S T U V W X Y Z # 

Black Man Bass tabs (ver.1)

Wonder Stevie Tabs
Rating:
0/5 (0 votes)
Black Man lessons Tabs too difficult? Try these video lessons and learn fast
                

This is the two bar riff that Stevie's left hand / Nathan Watts are playing:
It goes through the whole of the song.

   Bbm9           Gb6(Ab bass)      Emaj7(F# bass)  Gb6 
G:|--------1-3---------------------|--------r-----------------------|
D:|--------------------------------|4-------e-----------------------|
A:|1-1-1-1-----1-1-----------------|--4-1---s-----------------------|
E:|----------------4-4-4-4-4-4-4-4-|------2-t-----------------1-4-5-|

For ease of playing in the recorded key you might want to try the following
(i.e.: tune down a semitone)
   Bm9            G6(A bass)         Fmaj7(G bass)   G6 
Gb:|--------2-4---------------------|0-------r-----------------------|
Db:|--------------------------------|--0-----e-----------------------|
Ab:|2-2-2-2-----2-2-0-0-0-0-0-0-0-0-|----2---s-------------------0-1-|
Eb:|--------------------------------|------3-t-----------------2-----|
            
Submit corrections

comments powered by Disqus
↑ Back to top | Wonder Stevie Bass for Black Man. Lyrics for acoustic guitar and electric guitar. Tablatures and chords are parodies/interpretations of the original songs. You may use it for private study, scholarship, research or language learning purposes only