>
 >
The Grey Estates

The Grey Estates Bass Tabs

Wolf Parade - The Grey Estates chords, tabs, tablatures, lyrics

Guitar lessons | Add/correct | Request | Top 50 tabs Artists:  A B C D E F G H I J K L M N O P Q R S T U V W X Y Z 0-9

The Grey Estates Bass Tabs – Wolf Parade

CD, Sheet music, Poster

Do you like The Grey Estates? Share with your friends now
Bass Tabs
Artist - Wolf Parade
Song - The Grey Estates
Album - At Mount Zoomer

correction should be.


Intro (0:00)
G|-----------------------------------------------------|
D|-----------------------------------------------------|
A|-10--------------------------------------------------| 10's not 1-0's
E|----10-7/3333333333333-------------------------------|

(0:03 - 0:10)
G|--------------------------------------|
D|--------------------------------------|
A|--------------------------------------|
E|-7/33333333333333---------------------| x2

(0:10)
G|--------------------------------------|
D|--------------------5-----------------|
A|----------------3-5-------------------|
E|-7/333333333333-----------------------|


Verse x2 (0:14)
G|--------------------------------------|
D|--------------------------------------|
A|----------------3-5-------------------|
E|-33333333333333-----------------------|

(0:17)
G|--------------------------------------|
D|----------------------5---------------|
A|-------------3345--67-----------------|
E|-33333333333--------------------------|


Chorus (0:26)
G|--------------------------------------|
D|--------------------------------------|
A|--------------------------------------|
E|-0000000000000000-5555555555555555----|

G|--------------------------------------|
D|--------------------------------------|
A|--------------------------------------|
E|-3333333333333333-0000000000000000----| x4*
*Last bar play one "0" this time only


Intro (0:45)

Verse (0:59)

Chorus (1:11)


Post-Chorus (1:31)
G|--------------------------------------|
D|--------------------------------------|
A|--------------------------------------|
E|-5~----8~----8--8--8-8-8-8------------|

(1:37)
G|--------------------------------------|
D|--------------------------------------|
A|--------------------------------------|
E|-3333333333333333---------------------|
Repeat first part again this time only


Alternate Verse (1:47)
G|--------------------------------------|
D|--------------------------------------|
A|--------------------------------------|
E|-3333333333333333-3333333333333333----| x2


Chorus (2:06)

Post-Chorus x2 (2:18)


Bridge (2:37)
G|--------------------------------------|
D|--------------------------------------|
A|---------------3-3---3-3--3-----------|
E|-3-3---3-3--3-------------------------| x3

(2:47)
G|--------------------------------------|
D|--------------------------------------|
A|---------------3-3-5-5-6-6-5-5--------|
E|-3-3---3-3--3-------------------------|

Outro x4 (2:50)
Alternate back and forth between the last two bars

End on: E|-3~





Comments


Popular Wolf Parade tabs & chords
In The Radios Hot Sun Handsome Furs Chords
Language City Chords
I'll Believe In Anything 1 Tabs
It's A Curse Tabs
Modern World 3 Tabs
Shine A Light Tabs
Soldier's Grin Tabs
What Did My Lover Say It Always Had To Go This Way Tabs
An Animal In Your Care Ukulele
Yulia Ukulele


Song lyrics



↑ Back to top | Tablatures and chords are parodies/interpretations of the original songs. You may use it for private study, scholarship, research or language learning purposes only
© 2014 AZChords.com Contact us | Privacy policy | DMCA | Add/correct tabs | Request tabs | Top 50 tabs