» » »

Wolf Parade, Soldier's Grin Tabs (ver.1)

Artists:  A B C D E F G H I J K L M N O P Q R S T U V W X Y Z # 

Soldier's Grin Tabs (ver.1)

Wolf Parade Tabs
 Rating:
4/5 (4 votes)
Soldier's Grin lessons Tabs too difficult? Try these video lessons and learn fast
1
                This is what i have figured out of the song so far, it's basically everything except for 
bridge's solo parts.

Intro: (After the synth.)

E|---------------------------|
B|--10--8--------------------|
G|---------10--7--5----------|
D|-------------------7--5\3--|
A|---------------------------|
E|---------------------------|

Main Riff:

E|-----------------------------------5-5---------|
B|-10-10--8-10--10--8-10-10-8--------------------|
G|-----------------------------------------------|   X4
D|-----------------------------------------------|
A|--8--8--8--8---8--8--8--8--8--8-----5-5--------|
E|-----------------------------------------------|

-----------------------------------------------------------------------------
Verse:
(Just repeat these chords over and over)

 F                              D  B
"In my head there's a city at night"

-----------------------------------------------------------------------------
Main Riff X4
-----------------------------------------------------------------------------
Chorus:

 B             F          D            C
"And what you know can only mean one thing"

Fill:
E|------------------------------|
B|--10-8------------------------|
G|--------10-7--5---------------|
D|-------------------7--5-------|  X2
A|------------------------------|
E|------------------------------|

 B             F          D            C
"And what you know can only mean one thing"

Fill:
E|------------------------------|
B|--10-8------------------------|
G|--------10-7--5---------------|
D|-------------------7--5-------|  X2
A|------------------------------|
E|------------------------------|


 B      D        F              C
"Rooted to the place that you spring from."

Fill:
E|----------------------------------------------------------------------------|
B|--10-8----------------------------------------------------------------------|
G|--------10-7--5-------------------------------------------------------------|
D|-------------------7--5-----------------------------------------------------|  X2
A|----------------------------------------------------------------------------|
E|----------------------------------------------------------------------------|
------------------------------------------------------------------------------|

Main Riff X4.

-----------------------------------------------------------------------------

Verse:
 F                              D  B
"And this dirt was a building before"

-----------------------------------------------------------------------------
Bridge:
This is the part that i'm still working on I just have the chords at the moment.
G      D     F            B               F     B
And I rode. Horse shapen fire, draggin' stereo wire

Then it goes on for a bit like that, until it slightly goes over to:
 F      B          F             B
"This place here is no friend of mine
F         B            F             B
What is passed, we'll just leave it behind"

This keeps playing and after a while the fill joins in.

Fill:
E|----------------------------------------------------------------------------|
B|--10-8----------------------------------------------------------------------|
G|--------10-7--5-------------------------------------------------------------|
D|-------------------7--5-----------------------------------------------------|  x6
A|----------------------------------------------------------------------------|
E|----------------------------------------------------------------------------|
------------------------------------------------------------------------------|
Chorus:

 B             F          D            C
"And what you know can only mean one thing"

Fill:
E|------------------------------|
B|--10-8------------------------|
G|--------10-7--5---------------|
D|-------------------7--5-------|  X2
A|------------------------------|
E|------------------------------|

 B             F          D            C
"And what you know can only mean one thing"

Fill:
E|------------------------------|
B|--10-8------------------------|
G|--------10-7--5---------------|
D|-------------------7--5-------|  X2
A|------------------------------|
E|------------------------------|


 B      D        F              C
"Rooted to the place that you spring from."

Fill:
E|---------------------------------------------------------------------------|
B|--10-8---------------------------------------------------------------------|
G|--------10-7--5------------------------------------------------------------|
D|-------------------7--5----------------------------------------------------|  X2
A|---------------------------------------------------------------------------|
E|---------------------------------------------------------------------------|
-----------------------------------------------------------------------------|

Then play the main riff:

E|-----------------------------------5-5---------|
B|-10-10--8-10--10--8-10-10-8--------------------|
G|-----------------------------------------------|   X2
D|-----------------------------------------------|
A|--8--8--8--8---8--8--8--8--8--8-----5-5--------|
E|-----------------------------------------------|

That's it.
            
Submit corrections

comments powered by Disqus
↑ Back to top | Wolf Parade Tabs for Soldier's Grin. Lyrics for acoustic guitar and electric guitar. 1 Tablatures and chords are parodies/interpretations of the original songs. You may use it for private study, scholarship, research or language learning purposes only