>
 >
I'll Believe In Anything

I'll Believe In Anything Bass Tabs

Wolf Parade - I'll Believe In Anything chords, tabs, tablatures, lyrics

Guitar lessons | Add/correct | Request | Top 50 tabs Artists:  A B C D E F G H I J K L M N O P Q R S T U V W X Y Z 0-9

I'll Believe In Anything Bass Tabs – Wolf Parade

CD, Sheet music, Poster

Do you like I'll Believe In Anything? Share with your friends now
Bass TabsChordsTabsTabs v2
Artist - Wolf Parade
Song - I'll Believe in Anything
Album - Apologies to the Queen Mary

correction should be.

This song is different from a usual song in that instead of an 8/16 beat 
rythem, it does a 6/12 beat for the first half.

I probably didn't need to go into much detail but I'm a perfectionist, it's 
an easy song, just have to follow the same few riffs throughout the entire 
song with a few changes.


Riff 1 x3 (0:17)
G|--------------------------------|
D|--------------------------------|
A|-3-3-3-3-3-3-3-3-3-3-3-3--------|
E|--------------------------------|

Riff 2 (0:32)
G|-2-2-2--------------------------|
D|-------2-2-2-3-3-3--------------|
A|-------------------2-2-2--------|
E|--------------------------------|

Riff 1 x3 (0:37)

Riff 2 (0:52)

Riff 1 (0:57)

Riff 2 (1:02)

Riff 1 x5 (1:07)

Riff 3 (1:32)
G|--------------------------------|
D|-------2-2-2-3-3-3--------------|
A|-0-0-0-------------2-2-2--------|
E|--------------------------------|

Riff 1 (1:37)

Riff 4 (1:42)
G|--------------------------------|
D|--------------------------------|
A|-0-0-0-------------2-2-2--------|
E|-------0-0-0-1-1-1--------------|

Riff 1 x2 (1:47)

Bridge (1:57)
G|-----------------------------------|
D|-3-3-3-3-3-3-3-3-5-5-5-5-5-5-5-5---|
A|-----------------------------------|
E|-----------------------------------|

G|-----------------------------------|
D|-0-0-0-0-0-0-0-0-3-3-3-3-3-3-3-3---|
A|-----------------------------------|
E|-----------------------------------|

G|-----------------------------------|
D|-3-3-3-3-3-3-3-3-5-5-5-5-5-5-5-5---|
A|-----------------------------------|
E|-----------------------------------|

G|-----------------------------------|
D|-5-5-5-5-5-5-5-5-7-7-7-7-7-7-7-7---|
A|-----------------------------------|
E|-----------------------------------|

G|-----------------------------------|
D|-9-9-9-9-9-9-9-9-9-9-9-9-9-9-9-9---|
A|-----------------------------------|
E|-----------------------------------|

Riff 5 x3 (2:23)
G|---------------------|
D|---------------------|
A|-3~---3~---3~---3~---|
E|---------------------|

Riff 2 (2:38)

Riff 5 x3 (2:43)

Riff 2 (2:58)

Riff 5 (3:03)

Rest...

Riff 3 (3:23)

Riff 5 (3:28)

Riff 4 (3:33)

Short rest (things speed up here)

Outro (3:42) (basically the riffs from above but faster)

G|-----------------------------------|
D|---------2-2-2-2-3-3-3-3-----------|
A|-0-0-0-0-----------------2-2-2-2---|
E|-----------------------------------|

G|-------------------|
D|-------------------|
A|-3-3-3-3-3-3-3-3---|
E|-------------------|

G|-2-2-2-2---------------------------|
D|---------2-2-2-2-3-3-3-3-----------|
A|-------------------------2-2-2-2---|
E|-----------------------------------|

G|-------------------|
D|-------------------|
A|-3-3-3-3-3-3-3-3---|
E|-------------------|

G|-----------------------------------|
D|---------2-2-2-2-3-3-3-3-----------|
A|-0-0-0-0-----------------2-2-2-2---|
E|-----------------------------------|

G|-------------------|
D|-------------------|
A|-3-3-3-3-3-3-3-3---|
E|-------------------|

G|-2-2-2-2---------------------------|
D|---------2-2-2-2-3-3-3-3-----------|
A|-------------------------2-2-2-2---|
E|-----------------------------------|

G|-------------------|
D|-------------------|
A|-3-3-3-3-3-3-3-3---|
E|-------------------|

G|--------------------------------------|
D|--------------------------------------|
A|-0-0-0-0-----------------2-2-2-2--3---|
E|---------0-0-0-0-1-1-1-1--------------|





Comments


Popular Wolf Parade tabs & chords
In The Radios Hot Sun Handsome Furs Chords
You Are A Runner And I Am My Father's Son Chords
Dear Sons And Daughters Of Hungry Ghosts Tabs
Fine Young Cannibals Tabs
Fine Young Cannibals 1 Tabs
Fine Young Cannibals 3 Tabs
Modern World Tabs
Ill Believe In Anything Ukulele
In The Radios Hot Sun Handsome Furs Ukulele
This Heart Is On Fire Ukulele


Song lyrics



↑ Back to top | Tablatures and chords are parodies/interpretations of the original songs. You may use it for private study, scholarship, research or language learning purposes only
© 2014 AZChords.com Contact us | Privacy policy | DMCA | Add/correct tabs | Request tabs | Top 50 tabs