» » »

Wolf Parade, Fine Young Cannibals Tabs (ver.2)

Artists:  A B C D E F G H I J K L M N O P Q R S T U V W X Y Z # 

Fine Young Cannibals Tabs (ver.2)

Wolf Parade Tabs
 Rating:
4.4/5 (7 votes)
Fine Young Cannibals lessons Tabs too difficult? Try these video lessons and learn fast
                FINE YOUNG CANNIBALS



Main Rhythm for entire song
00:01
e---------------------------------------|
B---------------------------------------|
G---------------------------------------|
D-2-22----2-22------5-55-----5-55-------|
A-0-00-5--0-00--5---3-33--5--3-33--5----|
E------3--------3---------3--------3----|


1:07
-5-8-7--5-8-7--3-5-3-------------------|
-5-5-5--5-5-5--5-5-5--3-3--------------|
----------------------5-5--------------|
---------------------------------------|
---------------------------------------|
---------------------------------------|

1:24
-------------------------------------------------------|
---------5/6----------5/6----------6\5----------6\5----|
-9h10o9--5/7--9h10o9--5/7--9h10o9--7\5--9h10o9--7\5----|
-------------------------------------------------------|
-------------------------------------------------------|
-------------------------------------------------------|

02:14
--------------------5----5----5----5---|
-1------------3-----5----5----5----5---|
-2------------4------------------------|
-3------------5------------------------|
-3------------5------------------------|
---------------------------------------|

4:00  (this isn't totally accurate, but it's
the best I got by ear...e-mail me w/ corrections
if you have them)
---------------------------------------|
-5-5-5--5-5-5--1-1-1-11/5...-----------|
-5-5-5--4-4-4--2-2-2-00/5...-----------|
-5-5-5---------3-3-3-22/5...-----------|   x 7
---------------------33----------------|
---------------------------------------|
then
--------------------------------------|
-5-5-5--5-5-5--1-------3--------------|
-5-5-5--4-4-4--2-------4--------------|
-5-5-5---------3-------5--------------|
---------------3-------5--------------|
--------------------------------------|

4:29
--------------------------------------|
--------------------------------------|
-----14-----------12------------------|
-10----12-14--10-----10-12-14---------|
--------------------------------------|
--------------------------------------|

5:01 (he plays this various ways
throughout, but it's all based on this riff)

-------------3--5--3------------------|
-5--5--5--5--5--5--5--5--3--5---------|
----------------------5--5--5---------|
--------------------------------------|
--------------------------------------|
--------------------------------------|
            
Submit corrections

comments powered by Disqus
↑ Back to top | Wolf Parade Tabs for Fine Young Cannibals. Lyrics for acoustic guitar and electric guitar. Tablatures and chords are parodies/interpretations of the original songs. You may use it for private study, scholarship, research or language learning purposes only