» » »

Wolfgang, Natutulog Kong Mundo Tabs (ver.1)

Artists:  A B C D E F G H I J K L M N O P Q R S T U V W X Y Z # 

Natutulog Kong Mundo Tabs (ver.1)

Wolfgang Tabs
Rating:
4/5 (2 votes)
Natutulog Kong Mundo lessons Tabs too difficult? Try these video lessons and learn fast
                -------------------------------------------------------------------------------
-------------------------------------------------------------------------------

Tuning:tunedown halfstep (Eb,Ab,Db,Gb,Bb,Eb)







INTRO

e|---------------------------------------------------------------------------|
B|----------------------------------2-----4-----5--4--3-2--4-----------------|
G|-------------------------2--4----------------------------------------------|
D|--2--4-------4--6--7----------------------------------------2----1--2--4---|
A|---------(2)-----------2--------2-----2----2-----------------------------2-|
E|---------------------------------------------------------------------------|


						high there wolvesters! natutulog kong
e|-----------------------------------|		mundo by wolfgang. sarap i-jam ng song 
B|-----------------------------------|		na ito ang ganda pa ng lyrics. madali
G|--------------------4------------4-|		lang ang chords compare dun sa iba ni-
D|---1--2-------------4------------4-|		lang compositions. but, ang hirap ng
A|---------4--2-------2------------2-|		gtr solo parts. yung adlib 2 dun banda
E|-----------------------------------|		sa may ending, di ko na kinapa. bahala
						nalang kayo dumiskarte... syempre di 
						ko pwedeng kalimutan batiin yung mga 
						prends ko dyan sa las pinas, si alvin,
						ever, xtian, K, james at si gener.
						ofcourse!! solita and sharon sales and 
VERSE						malow. okay practice lang hangang sa
						gumaling... happy playing...
riff 1



e|----------------------------|     			###############
B|----------------------------|     			###############
G|---------10\x----------10---|     		 	##    ##    ###
D|--9------10\x------9---10---| 12x 			##    ##    ###
A|--9--x---8-\x--x-x-9---8----|     			######  #######
E|--7--x---------x-x-7--------|     			######  #######
at naglaho.......					   #########
     WALANG INGAY....					   ## # # ##
					    		   # # # # #
							   #########




	riff 2	


e|---------------------------------------------------------------------------|
B|---------------------------------------------------------------------------|
G|------10--7--9-----------10--7-9--9--------10--7-9------7-/-9--9-----------|
D|--9--10---7--9--7--9-----10--7-9--9-----9--10--7-9------7-/-9--9-----------|
A|--9--8----5--7--7--9--9--8---5-7--7--0--9--8---5-7------5-/-7--7-----------|
E|--7----------------7--7-----------------7----------------------------------|

    bote ng alak.....
    mga sigarilyo......
    kaibigang tunay.....


e|----------------|
B|----------------|
G|-------------4--|
D|--3----3-----4--|  2X
A|--3----3-----2--|
E|--1-xx-1-xx-----|




 riff 3

e|---------------------------------------------------------2-----|      
B|----------3-------------3----------------3-----------------3---|    the last two
G|------4-----4--------4-----4---------4-----4---------4-------4-|    lines are
D|----4---4-----4----4---4-----4-----4---4-----4-----4---4-------|4x  power chord G
A|--2--------------0---------------------------------------------|  & power chord F
E|--------------------------------3----------------2-------------|
	   kaibigan.....
	   





adlib 1

| /  slide up
| \  slide down
| h  hammer-on
| p  pull-off
| ~  vibrato
| +  harmonic
| x  Mute note

           G5                        E5                                         
e|---------------------------------------------------------------------------|
B|---------------------------------------------------------------------------|
G|---------------------------------------------------------------------------|
D|-------------8-----8--10--8--10^--10^-10^---10p8---8--10p8---10^-10^-------|
A|--------8h10----10------------------------------10--------10---------------|
E|---8h10--------------------------------------------------------------------|


    A5              D5                        G5                   E5

e|----------------------------------11---11----------------------------------|
B|------------------13p11--13^-13^--13^--13^-----------------------10-9h10p9-|
G|--------------10----------------------------10\9--9\7--7\9--9/10-----------|
D|--10p8--10/12--------------------------------------------------------------|
A|---------------------------------------------------------------------------|
E|---------------------------------------------------------------------------|


						     A5

e|---------------------------------------------------------------------------|
B|--7h9p7_10_10/12_12/13^~_12^_--12--10^-10--10--------3-3---3-3--3-3--------|
G|-----------------------------------------12--10----5^----5^---5^---5^------|
D|---------------------------------------------------------------------------|
A|---------------------------------------------------------------------------|
E|---------------------------------------------------------------------------|


			D5         B5   F5 D5E5         F5   D5  E5   B5 

e|-----10-10---10-10---10-10---------7----10-10--------7----7--7-------------|
B|--13^-----13^-----13^-----13^-------7-------------------------------11^----|
G|---------------------------------9^---9^------9-9^----9^---9^-9^-9^--------|
D|---------------------------------------------------------------------------|
A|---------------------------------------------------------------------------|
E|---------------------------------------------------------------------------|



       F5        D5        E5              A5    B5   F5

e|---------------------------------------------------------------------------|
B|--11^10^10^10^-9----9--------------------10*---8---------------------------|
G|-----------------11^--11-9-11p9-----7--9-----9---9p7--9p7------------------|
D|-------------------------------11---7--9-----------------9p7-7h9-----------|
A|-----------------------------------------------------------------3h5-------|
E|---------------------------------------------------------------------------|



    B5 F5  D5     E5     B5   F5  D5   E5              B5  F5  D5   E5

e|------------------------------------------------------7-----7---7----------|
B|--------------------------------------------------------7----7---7---------|
G|---------5h7-7p5--------------------5h7-7p5---5---9^----9^---9^---9^-------|
D|--3h5-5/7-------7p5-5h7-----3h5-5/7--------7-------------------------------|
A|-----------------------3h5-------------------------------------------------|
E|---------------------------------------------------------------------------|



                 A5     B5                           F5         B5  D5  B5 F5

e|--7-9-10-9-7---7-----------------------------------------------------------|
B|------------10--10-9--7h10p7-----------------------------------------------|
G|-----------------------------9-7h9p7------------------------------7--------|
D|-------------------------------------9-7h9p7-------------------9--7---9--3-|
A|---------------------------------------------7h9p7-5h7p5_------9--5---9--3-|
E|---------------------------------------------------------7-5---7------7--1-|






riff 4
	

e|-------------------------------------------------------------2-------|
B|---------------------------------------------------------------2-----|
G|------4-/-7-7\6--4-----4-/-7-7\6--4-----4-/-7-7\6--4-----4-------4---|
D|----4----------------4----------------4----------------4---4-------4-|   2x
A|--2----------------0-------------------------------------------------|
E|------------------------------------3----------------2---------------|

  WALA NA BANG KWENTO.....
  TUMTAWAG.........





riff 5
	

e|---------------------------------------------|
B|---------------------------------------------|
G|---------------------------------------------|
D|-----9-9--9-9---7-7-7-7---5-5-5-5----4-4-4-4-|  2x
A|-----9-9--9-9---7-7-7-7---5-5-5-5----4-4-4-4-|
E|-----7-7--7-7---5-5-5-5---3-3-3-3----2-2-2-2-|

   NAGSISISI.......
   HABANG IKAW .......



===============================================================================
            

comments powered by Disqus
↑ Back to top | Wolfgang Tabs for Natutulog Kong Mundo. Lyrics for acoustic guitar and electric guitar. Tablatures and chords are parodies/interpretations of the original songs. You may use it for private study, scholarship, research or language learning purposes only