>
 >
Vengeance

Vengeance Guitar Tabs

Woe Is Me - Vengeance chords, tabs, tablatures, lyrics

Guitar lessons | Add/correct | Request | Top 50 tabs Artists:  A B C D E F G H I J K L M N O P Q R S T U V W X Y Z 0-9

Vengeance Guitar Tabs – Woe Is Me

CD, Sheet music, Poster

Do you like Vengeance? Share with your friends now
TabsTabs v2
-------------------------------------------------------------------------------
-------------------------------------------------------------------------------

Tuning:A# F A# D# G C

All DISTORTION
                             INTRO

C |---------------------------------------------------------------------------|
G |---------------------------------------------------------------------------|
D#|---------------------------------------------------------------------------|
A#|----0~~~~~-----------------------------------------------------------------|
F |----0~~~~~----------0----------WE WILL LIVE FOREVER------------------------|
A#|----0~~~~~----------1------------------------------------------------------|
                    .




                         Repeat 3x

C |-----------------------------------------------------------------------------|
G |-----------------------------------------------------------------------------|
D#|-----------------------------------------------------------------------------|
A#|---------------------------------------------------0--3br--------------------|
F |------000-0-0-0--0-000---0-0-0-0-0-0-0-0-0--000----0--3br--111-11111---------|
A#|------111-1-1-1--1-111---1-1-1-1-1-1-1-1-1--111----0--3br--000-00000---------|
       ... . . .  . ...   . . . . . . . . .  ...            ... .....




C |---------------------------------------------------------------------------|
G |---------------------------------------------------------------------------|
D#|---------------------------------------------------------------------------|
A#|---------------------------------------------------------------------------|
F |--00000--0000-0000---------------------------------------------------------|
A#|--11111--1111 1111---------------------------------------------------------|
  .....  .... ....




            And if I were you..... Repeat 7x

C |-----------------------------------------------------------------------------|
G |-----------------------------------------------------------------------------|
D#|-----------------------------------------------------------------------------|
A#|-----------------------------------------------------------------------------|
F |-0000000---00000000---------11br0--------------------------------------------|
A#|-1111111---11111111-------------12b------------------------------------------|
    .......   ........

                     HELL!  Repeat 2x


C |---------------------------------------------------------------------------|
G |---------------------------------------------------------------------------|
D#|---------------------------------------------------------------------------|
A#|---------------------------------------------------------------------------|
F |--0000-0~---0000----000----0000-000---1-3---------1111--111-111------------|
A#|--1111-1~---1111----111----1111-111------3h1p-----0000--000-000------------|
  .... .    ....    ...    .... ...               ....  ... ...



                This is our vengeance! Repeat 8x (EXCEPT 1p0)


C |---------------------------------------------------------------------------|
G |---------------------------------------------------------------------------|
D#|---------------------------------------------------------------------------|
A#|---------------------------------------------------------------------------|
F |----------00000-000-12b0--------000-0--------------------------------------|
A#|1p01p01p0-11111-111-------12br--111-1--------------------------------------|
          ..... ...             ... .



               Interlude......


C |----------------------------------------|----------------------------------| -|
G |-------------------------5-5-5--4-4-4-4-|-------------5-5-5--4-4-4-4-------| -|
D#|-(Up And Down Strum)---7--7-7--7-7-7-7--|-----------7--7-7--7-7-7-7--------| -|
A#|--10---9---7----------------------------|-----0~~~----------------------------|    |OR
F |--x----x---x----------------------------|-----0~~~-------------------------| -|
A#|--8----7---5----------------------------|-----0~~~----------------------------|

                       Maybe One Day.... Repeat 4x

C |------------------------------------------------------------------------------|
G |-UP & DOWN Strum--------------UP & DOWN Strum---------------------------------|
D#|--9------------------------------9--------------------------------------------|
A#|--9----9-------------------------9---------------------0----------------------|
F |--7----9--------------12-0-------7----00-00-000-00-----0----------------------|
A#|-------9-------------------12b0-------11-11-111-11-----0----------------------|
                                    .. .. ... ..


                    For Every Kid That You Hear Loud And Clear

C |-----------------------------------------------------------------------------|
G |-----------------------------------------------------------------------------|
D#|--You Left Them In Fear------------------------------------------------------|
A#|---0~-5~/-3/--1-0------------------------------------------------------------|
F |---0~-5~/-3/--1-0-----000000-0000--0000000-0000-0000-0000-0000---------------|
A#|---0~-5~/-3/--1-0-----111111-11111-1111111-1111-1111-1111-1111 --------------|
--|
                      ...... ..... ....... .... .... .... ....


                      Though I Walk Through The......

C |---------------------------------------------------------------------------|
G |---------------------------------------------------------------------------|
D#|---------------------------------------------------------------------------|
A#|----------------------------------------I Told You That....----------------|
F |-111-1111-111-11-11111-1111-1111-111--------------------------0------------|
A#|-000-0000-000-00-00000-0000-0000-000---0-3-0-1h0--0-3-0-1h0---1------------|
 ... .... ... .. ..... .... .... ...                          .

                         Breakdown

C |------------------------------------------------------------------------------|
G |------------------------------------------------------------------------------|
D#|------------------------------------------------------------------------------|
A#|------------------------------------------------------------------------------|
F |---000~~----000------00000000~----000-00---0000-000---000-00-333--111---------|
A#|---111~~----111-33b--11111111~-4bp-111-11--1111-111---111-11-333--111---------|
   ...     ...       ........     ... ..  .... ...   ... .. ...  ...



                         How Could You Think....

C |---------------------------------------------------------------------------|
G |---------------------------------------------------------------------------|
D#|---------------------------------------------------------------------------|
A#|---------------------------------------------------------------------------|
F |---------------------------------------------------------------------------|
A#|---------------------------------------------------------------------------|



                     You Can Huff And You Can Puff...Repeat 3x

C |---------------------------------------------------------------------------|
G |---------------------------------------------------------------------------|
D#|---------------------------------------------------------------------------|
A#|---------------------------------------------------------------------------|
F |--000000--00--00000--0000--000--0000-00------------------------------------|
A#|--111111--11--11111--1111--111--1111-11------------------------------------|
  ......  ..  .....  .... ....  .... ..


         The Tensions Rise In Your Mind

C |-------------------------------------------------------------------------------|
G |-Up And Down Strums---------You Lost Your Flames..-----------------------------|
D#|--11---7-------11---7---11---14---16---14---7~~~~------------------------------|
A#|--11---7---0---11---7---11---14---16---14---7~~~~------------------------------|
F |--9----5---0---9----5---9----12---14---12---5~~~~------------------------------|
A#|-----------0-------------------------------------------------------------------|

                     Outro

C |---------------------------------------------------------------------------|
G |---------------------------------------------------------------------------|
D#|---------------------------------------------------------------------------|
A#|---------------------------------------------------------------------------|
F |--WE WILL LIVE FOREVER----------------------------------------------0~~----|
A#|------------------------1111-111-11111-11-1111-11-11-1-1111-1111----1~~----|
                        .... ... ..... .. .... .. .. . .... ....    .



Some of the palm mute signs are off I dont know why.   ENJOY!!!!


************************************

| /   slide up
| \   slide down
| h   hammer-on
| p   pull-off
| ~   vibrato
| +   harmonic
| x   Mute note
| b   Bend
| pb  Pre-bend
| br  Bend release
| pbr Pre-bend release
| brb Bend release bend

************************************





Comments


Popular Woe Is Me tabs & chords
Desolate (The Conductor) Chords
Desolate The Conductor Chords
Delinquents 1 Tabs
Fame Demise Tabs
Fame Demise 2 Tabs
Hell Or High Water Tabs
Last Friday Night Tgif Tabs
With Our Friends Behind Us Tabs
Desolate The Conductor 2 Ukulele
Fame Over Demise Ukulele


Song lyrics



↑ Back to top | Tablatures and chords are parodies/interpretations of the original songs. You may use it for private study, scholarship, research or language learning purposes only
© 2014 AZChords.com Contact us | Privacy policy | DMCA | Add/correct tabs | Request tabs | Top 50 tabs