» » »

Woe Is Me, Fame Over Demise Tabs (ver.2)

Artists:  A B C D E F G H I J K L M N O P Q R S T U V W X Y Z # 

Fame Over Demise Tabs (ver.2)

Woe Is Me Tabs
Rating:
5/5 (3 votes)
Fame Over Demise lessons Tabs too difficult? Try these video lessons and learn fast
                This is my first tab. Hooray. I'm 100 percent sure that these are correct.

HEY MIRANDA!!!! :D
 -Alex :)

                  Your true colors...
e|-----------------------------------------------------|
B|-----------------------------------------------------|
G|-----------------------------------------------------|
D|--x-x-x-x--5~--8~--7~-------7-x-x-5~--8~--7~---------|
A|--x-x-x-x--1~--5~--3~-------3-x-x-1~--5~--3~---------|
D|--x-x-x-x--1~--5~--3~-------3-x-x-1~--5~--3~---------|
    . . . .
(The strumming pattern is very easy, it's- strum, strum, mute.
Then after that it's- strum, light strum, strum, mute.)

             All that you taught me to be...
e|-----------------------------------------------------|
B|-----------------------------------------------------|
G|-----------------------------------------------------|
D|--x-x-x-x-xx-8-8-x-8-8-8-x-8-8-8-x-8-8-8-x-7-7-7-x---|
A|--x-x-x-x-xx-5-5-x-5-5-5-x-5-5-5-x-5-5-5-x-3-3-3-x---|
D|--x-x-x-x-xx-5-5-x-5-5-5-x-5-5-5-x-5-5-5-x-3-3-3-x---|
    . . . . ..
   Was a moper, a dreamer that only refused to dream...
e|-------------------------------------------------------|
B|-------------------------------------------------------|
G|-------------------------------------------------------|
D|--7-7-7-x-7-7-7-x-7-7-7-x-5-5-5-x-5-5-5-x-5-5-5-x-5-5-5|
A|--3-3-3-x-3-3-3-x-3-3-3-x-1-1-1-x-1-1-1-x-1-1-1-x-1-1-1|
D|--3-3-3-x-3-3-3-x-3-3-3-x-1-1-1-x-1-1-1-x-1-1-1-x-1-1-1|

My voice is peaking through your speakers...
e|-------------------------------|
B|-------------------------------|
G|-------------------------------|
D|--7-7-7-x-7-7-7-x-7-7-7-x-7-7-7|
A|--3-3-3-x-3-3-3-x-3-3-3-x-3-3-3|
D|--3-3-3-x-3-3-3-x-3-3-3-x-3-3-3|
             
           (DO NOT MUTE HERE)
      How could you shelter me out...
e|-------------------------------------------|
B|-------------------------------------------|
G|-------------------------------------------|
D|--8-8-8-8-8-8-8-8-8-8-8-8-8-8-8--7-7-7-7---|
A|--5-5-5-5-5-5-5-5-5-5-5-5-5-5-5--3-3-3-3---|
D|--5-5-5-5-5-5-5-5-5-5-5-5-5-5-5--3-3-3-3---|

                I'm much older now...
e|-------------------------------------------------------|
B|-------------------------------------------------------|
G|-------------------------------------------------------|
D|--7-7-7-7-7-7-7-7-7-7-7--5-5-5-5-5-5-5-5-5-5-5-5-5-5-5-|
A|--3-3-3-3-3-3-3-3-3-3-3--1-1-1-1-1-1-1-1-1-1-1-1-1-1-1-|
D|--3-3-3-3-3-3-3-3-3-3-3--1-1-1-1-1-1-1-1-1-1-1-1-1-1-1-|

You shatter like a beaker, and I only want to show you the way...
e|-------------------------------------------------|
B|-------------------------------------------------|
G|-------------------------------------------------|
D|--7-7-7-7-7-7-7-7-7-7-7-7-7-7-7-2-2-2-2-2-2-2-1~-|
A|--3-3-3-3-3-3-3-3-3-3-3-3-3-3-3-3-3-3-3-3-3-3-1~-|
D|--3-3-3-3-3-3-3-3-3-3-3-3-3-3-3-2-2-2-2-2-2-2-1~-|

            And I'll build my way out of your demise...
e|--------------------------------------------------------------|
B|--------------------------------------------------------------|
G|--------------------------------------------------------------|x2
D|--8-8-8-8-8--12-12-12-12-12-12-12--7-7-7-7-7-7-7-7-7-7-7-7-7-7|
A|--5-5-5-5-5--8--8--8--8--8--8--8---3-3-3-3-3-3-3-3-3-3-3-3-3-3|
D|--5-5-5-5-5--8--8--8--8--8--8--8---3-3-3-3-3-3-3-3-3-3-3-3-3-3|
      Time is gold...
e|-------------------------|
B|-------------------------|
G|-------------------------|
D|--7-7-7--3---3-xxx-x-x-x-|
A|--3-3-3--3---3-xxx-x-x-x-|
D|--3-3-3--3---3-xxx-x-x-x-|

   I'm not sure on the strumming.. But here's the chord order.
           Your true colors are starting to get loud...
e|--------------------------------------------------------------|
B|--------------------------------------------------------------|
G|--------------------------------------------------------------|
D|--5-----8-----7-----5-----8-----7-----2-----------------------|
A|--1-----5-----3-----1-----5-----3-----3-----------------------|
D|--1-----5-----3-----1-----5-----3-----2-----------------------|

             This war, don't determine who's right...
e|--------------------------------------------------------------|
B|--------------------------------------------------------------|
G|--------------------------------------------------------------|
D|--8-8-8-8-8-8-8--5-5-5-5-5-5-5--7-7-7-7-7-7-7-7-7-7-7-7-7-7---|x4
A|--5-5-5-5-5-5-5--1-1-1-1-1-1-1--3-3-3-3-3-3-3-3-3-3-3-3-3-3---|
D|--5-5-5-5-5-5-5--1-1-1-1-1-1-1--3-3-3-3-3-3-3-3-3-3-3-3-3-3---|

Your true colors are starting to get loud. Have fun prayin' to your grey god now.
e|--------------------------------------------------------|
B|--------------------------------------------------------|
G|--------------------------------------------------------|
D|--x-x-x-x--5~--8~--7~-------7-x-x-5~--8~--7~--5~/-------|
A|--x-x-x-x--1~--5~--3~-------3-x-x-1~--5~--3~--1~/-------|
D|--x-x-x-x--1~--5~--3~-------3-x-x-1~--5~--3~--1~/-------|


---------------------------------------------------------------------------------------------
Lyrics:
Your true colours are starting to get loud,
Have fun, praying to your Grey god now

All that you taught me to be
was a moper, a dreamer that only refused to dream
Oh save it please, my voice is peaking through your speakers
and Im speaking just to show you the way
How could you, shelter me out? Im much older now
You shatter like a beaker, when I only want to show you the way

I'll build my way out of your demise,
These dreams are my castles, not the walls you built up around me
whoa, when I look at my watch and I know, time is, time is gold

Your true colours are starting to get loud,
Have fun, praying to your grey god now

This war dont determine whose right,
this war just determines whose left standing tonight
Stop handing me lights,
I can see what you are in the dark just fine
Im not blind, Im bending the blinds
peaking through to get a glimpse of your anguishing life
Youre hiding like a vampire, here comes the strife
This wont hurt me cause I get a thrill...

Your true colours are starting to get loud,
Have fun, praying to your grey god now
---------------------------------------------------------------------------------------------



Thank you for using my tab. And I'm 100% sure that these are accurate.
            

comments powered by Disqus
↑ Back to top | Woe Is Me Tabs for Fame Over Demise. Lyrics for acoustic guitar and electric guitar. Tablatures and chords are parodies/interpretations of the original songs. You may use it for private study, scholarship, research or language learning purposes only