>
 >
Delinquents

Delinquents Guitar Tabs

Woe Is Me - Delinquents chords, tabs, tablatures, lyrics

Guitar lessons | Add/correct | Request | Top 50 tabs Artists:  A B C D E F G H I J K L M N O P Q R S T U V W X Y Z 0-9

Delinquents Guitar Tabs – Woe Is Me

CD, Sheet music, Poster

Do you like Delinquents? Share with your friends now
TabsTabs v2Tabs v3

Tuning: Drop C
CGCFAD

Probs The DE BEST Song By Them (:



(0:00 – 0:10)
“Visitor Come To My...”
|-------------------------------------|
|-------------------------------------|
|-------------------------------------|
|-------------------------------------|
|-0~------------------00-00-0000-00-0-|
|-0~------------------00-00-0000-00-0-| 
                      .. .. .... .. .

(0:10 – 0:14)
“I’m On The Verge...”
|--------------------------------------------------------------------|
|--------------------------------------------------------------------|
|--------------------------------------------------------------------|
|--------------------------------------------------------------------|
|-00-00-00-0000-00-00-0------00-00-00-0000-00-00-0------0-0-0000-00--|
|-00-00-00-0000-00-00-0------00-00-00-0000-00-00-0------0-0-0000-00--|
  .. .. .. .... .. .. .      .. .. .. .... .. .. .      . . .... ..

(0:14 – 0:21)
“A Vagabond...”
|------------------------------------------------------------|
|------------------------------------------------------------|
|------------------------------------------------------------|
|----------------------------------------3*b-----------------|
|-0-0-0000-00---0-0000-00--0-0-0000-00-0-----0-0000-0-0000-0-|
|-0-0-0000-00---0-0000-00--0-0-0000-00-0-----0-0000-0-0000-0-|
  . . .... ..   . .... ..  . . .... .. .     . .... . .... .

(0:21 – 0:34)
“You’re Mind...”
|----------------------------------------------|
|----------------------------------------------|
|----------------------------------------------|
|-0~--------07~---------70~---------05~--------|
|-0~--------07~---------70~---------05~--------|
|-0~--------07~---------70~---------05~--------|



A Pre-Chorus Like Thing
Comes Next But I Can’t 
Figure It Out :/



(0:40 – 0:53)
“Rain On Your Parade...”
|--------------------------------------------------------------|
|--------------------------------------------------------------|
|--------------------------------------------------------------|
|-7777777777777777-33333333333333-5555555555555555555555555555-|
|-7777777777777777-33333333333333-5555555555555555555555555555-|
|-7777777777777777-33333333333333-5555555555555555555555555555-|



(0:54 – 1:07)
“Who Am I To Pretend...”
|---------------------------------------|
|---------------------------------------|
|---------------------------------------|
|-33333333333333-77777777777777-5~------|
|-33333333333333-77777777777777-5~------|
|-33333333333333-77777777777777-5~------|


(1:07 – 1:20)
“Floor...”
|----------------------------------------------------------------------|
|----------------------------------------------------------------------|
|---(Fades In)---------------------------------------------------------|
|----------------------------------------------------------------------|
|--------------------------------------------------------------3-------|
|-1-0-0-0---0-1-0-1---0-0-0--00--0-0-0-0---1-0-0-0---0-1-0-1-0---3-1-0-|


(1:20 – 1:27)
“At My Knees, Praying...”
|----------------------------------------------------------------|
|----------------------------------------------------------------|
|----------------------------------------------------------------|
|-------------------------------------------------------------7*-|
|----------------------------------------------------------------|
|-1-0-0-0---0-1-0-1---0-0-0--00--0-0-0-0---1-0-0-0---0-1-0-1-0---|
                             ..

(1:27 – 1:40)
“I’ve Exposed...”
|------------------------------------------------------------------------|
|------------------------------------------------------------------------|
|------------------------------------------------------------------------|
|------------------------------------------------------------------------|
|-0~-00~----0~-000~--0~--0~--------00-00---0000-0000---00-00---0000-0000-|
|-1~-11~----1~-111~--1~--1~--------00-00---0000-0000---00-00---0000-0000-|
  .  ..     .  ...   .   .         .. ..   .... ....   .. ..   .... ....

(1:40 – 1:56)
“Most Vulnerable State...”
|----------------------------------------------------------------------|
|----------------------------------------------------------------------|
|----------------------------------------------------------------------|
|-5~-------------------------------------------------------------------|
|-8~------------0000-----0--00------00--0000-0-0000--0-00------00-0000-|
|-8~----8--5b---0000-----0--00-0~---00--0000-0-0000--0—00-0~---00-0000-|
                ....     .  ..      ..  .... . ....  . ..      .. ....

(1:56 – 2:12)
“I Find No Humour...”
|----------------------------------------------------------------|
|----------------------------------------------------------------|
|----------------------------------------------------------------|
|----------------------------------------------------5~----------|
|-0000--0--00------0-0000---000--0-00------00-0000---8~----------|
|-0000--0--00-0~---0-0000---000--0-00-0~---00-0000---8~----8--5b-|
  ....  .  ..      . ....   ...  . ..      .. ....  

(2:12 – 2:26)
“I Was The King...”
|------------------------------------------------------------------------|
|------------------------------------------------------------------------|
|------------------------------------------------------------------------|
|----------------------------------3*b-----------------------------------|
|-00--0-0000---0-0-0000---0-0-0000------00--0-00-0000--0000-0000-00-0000-|
|-00--0-0000---0-0-0000---0-0-0000------00--0-00-0000--0000-0000—00-0000-|
  ..  . ....   . . ....   . . ....      ..  . .. ....  .... .... .. ....

(2:26 – 2:53)
“Behind Every Mask...”
|------------------------------------------------------------|
|------------------------------------------------------------|
|------------------------------------------------------------| (x2)
|-77777777777777-55555555555555-3333333333333333333333333333-|
|-77777777777777-55555555555555-3333333333333333333333333333-|
|-77777777777777-55555555555555-3333333333333333333333333333-|


(2:53 – 2:27)
“Own Sins...”
|--------------|
|--------------|
|--------------|   END
|-7~-----------|
|-7~-----------|
|-7~-----------| 



Please Rate/Comment (:





Comments


Popular Woe Is Me tabs & chords
Desolate The Conductor Chords
Fame Over Demise Chords
Delinquents 3 Tabs
Desolate The Conductor Tabs
Fame Over Demise 1 Tabs
Family First Tabs
Mannequin Religion 1 Tabs
Vengeance Tabs
With Our Friends Behind Us Tabs
Family First Ukulele


Song lyrics



↑ Back to top | Tablatures and chords are parodies/interpretations of the original songs. You may use it for private study, scholarship, research or language learning purposes only
© 2014 AZChords.com Contact us | Privacy policy | DMCA | Add/correct tabs | Request tabs | Top 50 tabs