» » »

W8ing 4u Bass tabs (ver.1)

Artists:  A B C D E F G H I J K L M N O P Q R S T U V W X Y Z # 

W8ing 4u Bass tabs (ver.1)

Wizo
Rating:
0/5 (0 votes)

Hard to play? Try these video lessons and learn fast.
                
Very simple. You can play it with the slow struming durning the chorus 
if you want or the single half notes. Just listen for timing. Also,
hold the last note of the bridge. Feel free
to email any corrections.


Verse              
G|-----------------|
D|-----------------|
A|------6--4--6----|
E|---4-------------|
   
pre-chorus                         
G|---------------------------------|
D|---------------------------------|
A|--------------------4--4--4--6---|
E|--4--4--4--4--4--4-------------4-|


chorus                                              
G---------------------------------------------------|
D---------------------------------------------------|
A---------------6--6--6--6--4--4--4--4--6--6--6--6--|
E---4--4--4--4--------------------------------------|
                                                                        
more chorus                                                                
G--------------------------------------------------------------------------|
D--------------------------------------------------------------------------|
A---------------6--6--6--6--4--4--4--4--4--4--4--4-6--6--6--6--6--6--6--6--|
E---4--4--4--4-------------------------------------------------------------|
                                                                        
bridge                                                                     
G--------------------------------------------------------------------------|
D--------------------------------------------------------------------------|
A------------4--4--4--4--4--4-----6--6--6--6--6--6------4--4--4--4--4--4---|
E---4--------------------------4--------------------4---------------------4|
                                                                        
End (Play to the na na na na ) repeat till end
G------------------------------------------|
D------------------------------------------|
A------------------------------------------|
E---5-----5--5--5--0-----5-----5--5--5--0--|
                                                                        

==ORDER==

Verse        3x
pre-chorus   1x
verse        3x
pre-chorus   1x
chorus       3x
more chorus  1x
verse        3x
pre-chorus   1x
chorus       3x
more chorus  1x
bridge       1x
End (till end)
            
Hard to play? Try these video lessons and learn fast. | Correct




comments powered by Disqus
↑ Back to top | Tablatures and chords are parodies/interpretations of the original songs. You may use it for private study, scholarship, research or language learning purposes only