» » »

Wizo, Santa Claus Is Coming To Town Tabs (ver.1)

Artists:  A B C D E F G H I J K L M N O P Q R S T U V W X Y Z # 

Santa Claus Is Coming To Town Tabs (ver.1)

Wizo Tabs
 Rating:
4/5 (6 votes)
Santa Claus Is Coming To Town lessons Tabs too difficult? Try these video lessons and learn fast
                WIZO: Santa Claus Is Coming To Town

intro
e|---------------------------------------------------------------------| 
B|------------2--------------2--------------2--------------2-----------| 
G|-44--33--44-2---44--33--44-2---44--33--44-2---44--33--44-2-----------| 
D|-22--11--22-0---22--11--22-0---22--11--22-0---22--11--22-0-----------| 
A|-22--11--22-----22--11--22-----22--11--22-----22--11--22-------------| 
E|---------------------------------------------------------------------| 
     



>------------------play mute------------------------------------------<
verse  A:     You better watch out...
e|---------------------------------------------------------------------| 
B|---------------------------------------------------------------------| 
G|---------------------------------------------------------------------| 
D|---------------------------------------------------------------------| 
A|---------------------------------------------------------------------| 
E|--7777---00-00-00-00-------------------------------------------------| 
     
chorus:
Santa claus is coming to town
e|---------------------------------------------------------------------| 
B|---------------------------------------------------------------------| 
G|------------6-6------------------------------------------------------| 
D|--9-9--6-6--6-6--4-4-------------------------------------------------| 
A|--9-9--6-6--4-4--4-4-------------------------------------------------| 
E|--7-7--4-4-------2-2-------------------------------------------------| 
  



verse B: He see´s you when you´re sleeping...
e|---------------------------------------------------------------------| 
B|--10---9---12---11---------------------------------------------------| 
G|--11---9---13---11---------------------------------------------------| 
D|--9----9---11---11---------------------------------------------------| 
A|---------------------------------------------------------------------| 
E|---------------------------------------------------------------------| 
     4x  4x  4x  4x

solo
e|---------------------------------------------------------------------| 
B|---------------------------------------------------------------------| 
G|---------------------------------------------------------------------| 
D|------------6-6-7-8-9------------7-----------------------------------| 
A|--6-6-7-8-9-----------6-6-7-8-9-9-9-7-6-9-6-4-7-4-2------------------| 
E|-----------------------------------------7-----6---------------------| 
  

e|---------------------------------------------------------------------| 
B|--------------8-8-9-10-11---------------9----------------------------| 
G|--8-8-9-10-11-------------8-8-9-10-11-11-11-9-8-11-8-6-9-6-4---------| 
D|--------------------------------------------------9-----8------------| 
A|---------------------------------------------------------------------| 
E|---------------------------------------------------------------------|
            
Submit corrections

comments powered by Disqus
↑ Back to top | Wizo Tabs for Santa Claus Is Coming To Town. Lyrics for acoustic guitar and electric guitar. Tablatures and chords are parodies/interpretations of the original songs. You may use it for private study, scholarship, research or language learning purposes only