>
 >
R.A.F

R.A.F Guitar Tabs

Wizo - R.A.F chords, tabs, tablatures, lyrics

Guitar lessons | Add/correct | Request | Top 50 tabs Artists:  A B C D E F G H I J K L M N O P Q R S T U V W X Y Z 0-9

R.A.F Guitar Tabs – Wizo

CD, Sheet music, Poster

Do you like R.A.F? Share with your friends now
Tabs
WIZO - RAF


r( ) = right hand muting
l( ) = left hand muting
   / = slide up
   \ = slide down


  Solo 1

e:---------9--11-11-11-9\7--7--------------12-------------9--12-12-12-11-9---|
B:------12---------------------------9--12-------------11--------------------|
G:11-11------------------------9--9--------------11-11-----------------------|
D:---------------------------------------------------------------------------|
A:---------------------------------------------------------------------------|
E:---------------------------------------------------------------------------|





e:12-12-11-9--11\-------------9--11-11-11-9\7--7--------------12----12-12-11-|
B:-------------------------12---------------------------9--12----------------|
G:-------------------11-11------------------------9--9-----------------------|
D:---------------------------------------------------------------------------|
A:---------------------------------------------------------------------------|
E:---------------------------------------------------------------------------|





e:9--11-11-11-9\7--7\--------------------------------------------------------|
B:---------------------------------------------------------------------------|
G:---------------------------------------------------------------------------|
D:----------------------4--4--r(4)--r(4)--4--r(4)--r(4)--4--r(4)--r(4)--4----|
A:----------------------4--4--r(4)--r(4)--4--r(4)--r(4)--4--r(4)--r(4)--4----|
E:----------------------2--2--r(2)--r(2)--2--r(2)--r(2)--2--r(2)--r(2)--2----|



                                 Verse 1 A

e:---------------------------------------------------------------------------|
B:---------------------------------------------------------------------------|
G:11-11-11-11-11-11-11-11-11-------------------------------------------------|
D:11-11-11-11-11-11-11-11-11-----r(6)--r(6)--6----r(6)--r(6)--6--r(6)--r(6)--|
A:9--9--9--9--9--9--9--9--9------r(6)--r(6)--6----r(6)--r(6)--6--r(6)--r(6)--|
E:-------------------------------r(4)--r(4)--4----r(4)--r(4)--4--r(4)--r(4)--|





e:---------------------------------------------------------------------------|
B:---------------------------------------------------------------------------|
G:---------------------------------------------------------------------------|
D:6--r(2)--r(2)--2----r(2)--r(2)--2/4\2--r(6)--r(6)--6----r(6)--r(6)--6--r(6)|
A:6--r(2)--r(2)--2----r(2)--r(2)--2/4\2--r(6)--r(6)--6----r(6)--r(6)--6--r(6)|
E:4--r(0)--r(0)--0----r(0)--r(0)--0/2\0--r(4)--r(4)--4----r(4)--r(4)--4--r(4)|



                                                          Verse 1 B
                                                          <   4 times   >
e:---------------------------------------------------------------------------|
B:--------------------------------------------------------l(12)-l(12)--12----|
G:--------------------------------------------------------l(13)-l(13)--13----|
D:--r(6)--6--r(4)--r(4)--4----r(4)--r(4)--4--5------------l(13)-l(13)--13----|
A:--r(6)--6--r(4)--r(4)--4----r(4)--r(4)--4--5------------l(11)-l(11)--11----|
E:--r(4)--4--r(2)--r(2)--2----r(2)--r(2)--2--3-------------------------------|



                                                          Verse 1 C
  <  4 times  >    <   4 times   >    <   4 times   >
e:-----------------l(9)--l(9)---9--------------------------------------------|
B:l(9)--l(9)--9----l(9)--l(9)---9-----l(11)-l(11)--11--------4---------------|
G:l(9)--l(9)--9----l(9)--l(9)---9-----l(11)-l(11)--11--------4----------4----|
D:l(9)--l(9)--9----l(11)-l(11)--11----l(11)-l(11)--11-----6-----6----3-----3-|
A:l(7)--l(7)--7-----------------------l(9)--l(9)---9-------------------------|
E:---------------------------------------------------------------------------|



                                          Chorus 1 A
                                          H                       E
e:----------------------------------------7-----7-----7-----7-----7-----7----|
B:------4------------------------------------7-----7-----7-----7-----7-----7-|
G:------4----------4-------------1--3----------------------------------------|
D:---6-----6----3-----3----2--4----------------------------------------------|
A:---------------------------------------------------------------------------|
E:---------------------------------------------------------------------------|




               Fis                     Fis   E     H           H
e:-7-----7-----7-----7-----7-----7-----7-----7-----7-----7-----7-----7-----7-|
B:----7-----7-----7-----7-----7-----7-----7-----7-----7-----7-----7-----7----|
G:---------------------------------------------------------------------------|
D:---------------------------------------------------------------------------|
A:---------------------------------------------------------------------------|
E:---------------------------------------------------------------------------|



                                     Chorus 1 B
            E                        8times  8times  8times  8times  8times
e:----7-----7-----7-----7-----7----------------------------------------------|
B:-7-----7-----7-----7-----7-----7-------------------------------------------|
G:-----------------------------------r(9)------------r(11)-----------r(9)----|
D:-----------------------------------r(9)----r(9)----r(11)---r(9)----r(9)----|
A:-----------------------------------r(7)----r(9)----r(9)----r(9)----r(7)----|
E:-------------------------------------------r(7)------------r(7)------------|



          Chorus 1 C   Solo 2
  8times
e:------------------------------9--11-11-11-9\7--7--------------12---12-12-11|
B:---------------------------12---------------------------9--12--------------|
G:---------------------11-11------------------------9--9---------------------|
D:r(9)----4------------------------------------------------------------------|
A:r(9)----4------------------------------------------------------------------|
E:r(7)----2------------------------------------------------------------------|





e:-9--11-11-11-9\7--7\-------------------------------------------------------|
B:---------------------------------------------------------------------------|
G:---------------------------------------------------------------------------|
D:----------------------4--4--r(4)--4--4--r(4)--r(4)--r(4)--r(4)--r(4)--r(4)-|
A:----------------------4--4--r(4)--4--4--r(4)--r(4)--r(4)--r(4)--r(4)--r(4)-|
E:----------------------2--2--r(2)--2--2--r(2)--r(2)--r(2)--r(2)--r(2)--r(2)-|



                       Verse 2 A
                       <   4 times   >    <  4 times  >     <   4 times   >
e:---------------------------------------------------------------------------|
B:---------------------r(14)-r(14)--14----r(9)--r(9)--9-----r(14)-r(14)--14--|
G:---------------------r(13)-r(13)--13----r(9)--r(9)--9-----r(13)-r(13)--13--|
D:-r(4)--r(4)--r(4)----r(13)-r(13)--13----r(9)--r(9)--9-----r(13)-r(13)--13--|
A:-r(4)--r(4)--r(4)----r(11)-r(11)--11----r(7)--r(7)--7-----r(11)-r(11)--11--|
E:-r(2)--r(2)--r(4)----------------------------------------------------------|



                       Verse 2 B     Verse 2 C     Chorus 2 A     Chorus 2 B
  <   3 times   >      =Verse 1 B    =Verse 2 C    =Chorus 2 A    =Chorus 1 B
e:---------------------------------------------------------------------------|
B:r(11)-r(11)--11------------------------------------------------------------|
G:r(11)-r(11)--11------------------------------------------------------------|
D:r(11)-r(11)--11--5---------------------------------------------------------|
A:r(9)--r(9)---9---5---------------------------------------------------------|
E:-----------------3---------------------------------------------------------|



  Chorus 2 C     Bridge

e:---------------------------------------------------------------------------|
B:---------------------------------------------------------------------------|
G:11--13--13-----------8-----8-------------9-----9-------------10----10------|
D:11--11--11-----6--9-----9-----9\---2--9-----9-----9\---3--9-----9-----9\---|
A:9---9---9------------------------------------------------------------------|
E:---------------------------------------------------------------------------|





e:---------------------------------------------------------------------------|
B:---------------------------------------------------------------------------|
G:------11----11---------------8-----8-------------9-----9-------------10----|
D:4--11----11----11\-----6--9-----9-----9\---2--9-----9-----9\---3--9-----9--|
A:---------------------------------------------------------------------------|
E:---------------------------------------------------------------------------|



                             Chorus 3 A
                             C           F           G           G  F  C
e:---------------------------8--8--8--7--5--5--5--5--7--7--7--7--7--5--3--3--|
B:---------------------------------------------------------------------------|
G:10------------11----12-----------------------------------------------------|
D:---9\---4--11----11--------------------------------------------------------|
A:---------------------------------------------------------------------------|
E:---------------------------------------------------------------------------|



                            Chorus 3 B
  C           F             F           C              G           C
e:8--8--8--7--5--5--5--5-----------------------------------------------------|
B:-----------------------------10-12-10--------------------------------------|
G:--------------------------------------12-12-12-10-9--10-10-9--10-12-l(12)-9|
D:--------------------------10-----------------------------------------------|
A:---------------------------------------------------------------------------|
E:---------------------------------------------------------------------------|




            F           C              G            C             F
e:---------------------------------------------------------------------------|
B:-------------10-12-10-------------------------------------------13----13---|
G:-10-12----------------12-12-12-10-9--10-10-9--10-------------------12----12|
D:----------10---------------------------------------------------------------|
A:--------------------------------------------------------6--7---------------|
E:--------------------------------------------------8--10--------------------|



                                                                 Chorus 3 C
   C           G           C             F           C           G
e:---------------------------------------------------------------------------|
B:-13----13----12----12----13----13------13----13----13----13----12-12-12-12-|
G:----12----12----12----12----12----12------12----12----12----12-------------|
D:---------------------------------------------------------------------------|
A:---------------------------------------------------------------------------|
E:---------------------------------------------------------------------------|



                                                      Solo 3
  G           G          G    G       G         C
e:---------------------------------------------------------------------------|
B:12-12-12-12-12-12--------------------------------------------5--5--5-------|
G:-------------------------------------------------------5--7-----------7--5-|
D:--------------------------------9---10---12---10----5----------------------|
A:------------------10---12--------------------------------------------------|
E:---------------------------------------------------------------------------|


                                 
                                 

e:-------------------------------|
B:-------------------------------|
G:------------------------------5|
D:r(3)--r(3)--r(5)--r(5)--r(5)--5|
A:r(3)--r(3)--r(5)--r(5)--r(5)--3|
E:r(1)--r(1)--r(3)--r(3)--r(3)---|



This TAB transcription was created using TAB MASTER version 1.0
If you enjoy using this program, please consider telling the author

This program is freeware, but it took me some work to make it, so
your financial contribution is welcome.





Comments


Popular Wizo tabs & chords
Closet Bass Tabs
B D U Chords
Bleib Tapfer 1 Chords
Gemein Chords
Gute Freunde Chords
B D U Tabs
Das Goldene StüCk Scheisse Tabs
Das Goldene Stuck Scheisse Tabs
How Could I've Known Tabs
Koenigin Tabs


Song lyrics



↑ Back to top | Tablatures and chords are parodies/interpretations of the original songs. You may use it for private study, scholarship, research or language learning purposes only
© 2014 AZChords.com Contact us | Privacy policy | DMCA | Add/correct tabs | Request tabs | Top 50 tabs