» » »

Nice Dayto Die Today Tabs (ver.1)

Artists:  A B C D E F G H I J K L M N O P Q R S T U V W X Y Z # 

Nice Dayto Die Today Tabs (ver.1)

Wizo
Rating:
0/5 (0 votes)

Hard to play? Try these video lessons and learn fast.
                It's an awesome song and I tried to figure out and I think I did well.
Although it's my first tab.
Hope you enjoy it!!!


Wizo  - Nice day ( to die Today)

Intro:
Guitar 1:
e   | - - - - - - - - - - - - - - - - - - - -- - - - - - - - - - - - - --|  
b   | - - - - - - - - - - - - - - - - - - - - - - - - - - - - - - - - - -|
g   | - - - - - - - - - - 9 - - - - - - - - - - - 9 - - - - - - - - - - -|
d   | - - - - - - - 9 - - - - - 9 - - - - - 9 - - - - - 9 - - - - - - - -|     
a   | - - - 7 - - - - - - - - - - - - 7  - - - - - - - - - - - - 7 - - - | 
E   | - - - - - - - - - - - - - - - - - - - - - - - - - - - - - - - - - -|

e   | - - - - - - - - - - - - - - - - - - - -- - - - - - - - - - - - - --|  
b   | - - - - - - - - - - - - - - - - - - - - - - - - - - - - - - - - - -|
g   | - - - - - - - - - - 9 - - - - - - - - - - - 9 - - - - - - -  - -- -|
d   | - - - - - - - 9 - - - - - 9 - - - - - 9 - - - - - 9 - - - - - - - -|     
a   | - - - 6 - - - - - - - - - - - - 6  - - - - - - - - - - - - 6 - - - | 
E   | - - - - - - - - - - - - - - - - - - - - - - - - - - - - - - - - - -|

Guitar 2: 
e   | - - - - - - - - - - - - - - - - - - - -- - - - - - - - - - - - - - -|  
b   | - - - - - - - - - - - - - - - - - - - - - - - - - - - - - - - - - --|
g   | - - - - - - - - - - - - - - - - - - - - - - - - - - - - - - -- - - -|
d   | - - - - - - - - - - - - - - - - - - - - - - - - - - - - - - - - - --|     
a   | - - - -7 - - - - - - - - - - -  - 6- - - - - - - - - - - - - -4 - - | 
E   | - - - - - - - - - - - - - - - - - - - - - - - - - - - - - - - - -- -|

Repeat as often as necessary

Verse:
e   | - - - - - - - - - - - - - - - - - - - -- - - - - - - - - - - - - -|  
b   | - - - - - - - - - - - - - - - - - - - - - - - - - - - - - - - - --|
g   | - - - 9 - - - 9 - - - 9-9-9-9- - - - - - - - - - - - - -- - - - --|
d   | - - - 9 - - - 9 - - - 9-9-9-9- - - - - - - - - - - - - - - - - - -|     
a   | - - - 7 - - - 7- - - -7-7-7-7 - - -   - - - - - - - - - - - - -- -| 
E   | - - - - - - - - - - - - - - - - - - - - - - - - - - - - - - - - --|

e   | - - - - - - - - - - - - - - - - - - - -- - - - - - - - - -  - - -|  
b   | - - - - - - - - - - - - - - - - - - - - - - - - - - - - - - - - -|
g   | - - - - - - - - - - - - - - - - - - - - - - - - - - - - - - -- --|
d   | - - - - 9- - - -9 - - - 9-9-9-9 - - - - - - - - - - - - - - - - -|     
a   | - - - - 9- - - -9- - - -9-9-9-9- - - - - - - - - - - - - - - - - | 
E   | - - - --7 - - - 7- - - -7-7-7-7- - - - -  - - - - - - - - -- -- -|

e   | - - - - - - - - - - - - - - - - - - - -- - - - - - - - - - --|  
b   | - - - - - - - - - - - - - - - - - - - - - - - - - - - - - - -|
g   | - - - - - - - - - - - - - - - - - - - - - - - - - - - -  - --|
d   | - - - -11- - -11 - - -11-11-11-11 - - - - - - - - - - - - - -|     
a   | - - - -11- - - 11 - - 11-11-11-11 -  - - - - - - - - - - - - | 
E   | - - - -9 - - - -9 - - 9--9--9- -9 - -- - - - - - -  - - - - -|

Repeat as often as neccesary

Chorus:  
e   | - - - - - - - - - - - - - - - - - - - -- -- - - - - - - - - - --|  
b   | - - - - - - - - - - - - - - - - - - -- - - - - - - - - - - - - -|
g   | - - - 9 - - - 9 - - - 9-9-9-9- - - - - - - - - - - - - -- - - --|
d   | - - - 9 - - - 9 - - - 9-9-9-9- - - - - - - - - - - - - - - - - -|     
a   | - - - 7 - - - 7- - - -7-7-7-7 - - -  - - - - - - - - - - - - -- | 
E   | - - - - - - - - - - - - - - - - - -  - - - - - - - - - - - --- -|

e   | - - - - - - - - - - - - - - - - - - - -- - - - - - - - - - - - --|  
b   | - - - - - - - - - - - - - - - - - - - - - - - - - - - - - - - - -|
g   | - - - - - - - - - - - - - - - - - - - - - - - - - - - - - -- - --|
d   | - - - - 9- - - -9 - - - 9-9-9-9 - - - - - - - - - - - - - - - - -|     
a   | - - - - 9- - - -9- - - -9-9-9-9- - - - - - - - - - - - - - - - - | 
E   | - - -- -7 - - - 7- - - -7-7-7-7- - - - -  - - - - - - -  - - -- -|

e   | - - - - - - - - - - - - - - - - - - - -- - - - - - - - - --|  
b   | - - - - - - - - - - - - - - - - - - - - - - - - - - - - - -|
g   | - - - - - - - - - - - - - - - - - - - - - - - - - -- - - --|
d   | - - - -11- - -11 - - --11-11-11-11 - - - - - - - - -- - - -|     
a   | - - - -11- - - 11 - -- 11-11-11-11 -  - - - - - - - - ---- | 
E   | - - - -9 - - - -9 - - - 9--9--9--9 - - - - - - -  - - - - -|

e   | - - - - - - - - - - - - - - - - - - - -- - - - - - - - - - -- - --|  
b   | - - - - - - - - - - - - - - - - - - - - - - - - - - - - - -  - - -|
g   | - - - - - - - - - - - - - - - - - - - - - - - - - - - - - - --  --|
d   | - - - - 7- - - - - 7- - - -7-7-7-7 - - - - -  - - - - - - - - -- -|     
a   | - - - - 7- - - - - 7- - - -7-7 7-7 - - - - - - - - - - - - - - -- | 
E   | - - - --5 - - - - -5 - - - 5-5-5-5 - - - - - - - - - - - - - -- - -|

Repeat as often as necessary


Solo:
Didn’t figure out yet, but Guitar 1) could play verse and Guitar 2)something like this:

e   | - - - 4 - - - - 2 - - - - 0- - - - - - - - - - - --|  
b   | - - - - - - - - - - - - - - - - - - 4- - - -0-  - -|
g   | - - - - - - - - - - - - - - - - - - - - - - - - - -|          
d   | - - - - - - - - - - - - - - - - - - - - - - - - - -|     
a   | - - - - - - - - - - - - - - -  - - - - - - - - - - | 
E   | - - - - - - - - - - - - - - - - - - - - - - - - - -|

Repeat as often as necessary
            
Hard to play? Try these video lessons and learn fast. | Correct




comments powered by Disqus
↑ Back to top | Tablatures and chords are parodies/interpretations of the original songs. You may use it for private study, scholarship, research or language learning purposes only