>
 >
Kopfschuss

Kopfschuss Guitar Tabs

Wizo - Kopfschuss chords, tabs, tablatures, lyrics

Guitar lessons | Add/correct | Request | Top 50 tabs Artists:  A B C D E F G H I J K L M N O P Q R S T U V W X Y Z 0-9

Kopfschuss Guitar Tabs – Wizo

CD, Sheet music, Poster

Do you like Kopfschuss? Share with your friends now
ChordsTabsUkulele
WIZO - Kopfschuss


Intro 1: 5x
E-|----------------------I--------------------------I
B-|----------------------I--------------------------I
G-|----------------------I--------------------------I
D-|-------2----3----5----I--3----2-----2^3^3--------I
A-|--0-0----0----0----0--I-----0----0---------5-3---I
E-|----------------------I--------------------------I


Währenddessen: 
     A5  A5  G5  F5  A5  C5  G5
E-|-----------------------------I
B-|-----------------------------I
G-|--2---2-----------2---5------I
D-|--2---2---5---3---2---5---5--I
A-|--0---0---5---3---0---3---5--I
E-|----------3---1-----------3--I


Intro 2: 1x
E-|----------------------I--------------------------I
B-|----------------------I--------------------------I
G-|----------------------I--------------------------I
D-|-------2----3----5----I--7----5----3----2--------I
A-|--0-0----0----0----0--I-----0----0----0----------I
E-|----------------------I--------------------------I

Währenddessen: 
     F5
E-|-----I
B-|-----I
G-|-----I
D-|--3--I
A-|--3--I
E-|--1--I


3x Intro 1

1x halbes Intro 2



VERS:

E-|-------------------------------------------------------------I
B-|-------------------------------------------------------------I
G-|----2--------------------------------------------------------I
D-|----2------------------------------2-------------------------I
A-|----0------------------------------2-------------------------I
E-|-----------------------------------0-------------------------I
       A5                             E5
In der deutschen Verfassung steht die Todesstrafe ist abgeschafft


E-|-------------------------------------------------------------I
B-|-------------------------------------------------------------I
G-|--5------------------------------7---------------------------I
D-|--3------------------------------7---------------------------I
A-|--3------------------------------5---------------------------I
E-|-------------------------------------------------------------I
     C5                             D5
Doch hin und wieder tritt diese Verfassung außer Kraft


E-|-------------------------------------------------------------I
B-|-------------------------------------------------------------I
G-|---------2---------------------------------------------------I
D-|---------2---------------------------------------2-----------I
A-|---------0---------------------------------------2-----------I
E-|-------------------------------------------------0-----------I
            A5                                      E5
Denn um die Sicherheit im deutschen Staat mit allen Mitteln zu bewahren


E-|-------------------------------------------------------------I
B-|-------------------------------------------------------------I
G-|-----------5------------------------------7------------------I
D-|-----------3------------------------------7------------------I
A-|-----------3------------------------------5------------------I
E-|-------------------------------------------------------------I
              C5                            D5
Holt man sich immer wieder gerne Rat bei Gesetzen von vor 60 Jahrn



BRIDGE:

E-|-------------------------------------------------------------I
B-|-------------------------------------------------------------I
G-|------------------------------2------------------------------I
D-|--3------------5--------------2------------------------------I
A-|--3------------5--------------0------------------------------I
E-|--1------------3---------------------------------------------I
    F5            G5             A5
Was früher die Gestapo war, ist heut das BKA


FILL IN:

Gitarre A
E-|-----------------I
B-|-----------------I
G-|-----------------I
D-|-----------------I
A-|--0-0-2-2-3-3-5--I
E-|-----------------I

Gitarre B
     D5
E-|-----I
B-|-----I
G-|--7--I
D-|--7--I
A-|--5--I
E-|-----I


BRIDGE (fortgesetzt):

E-|-----------------------------------------------------------------I
B-|-----------------------------------------------------------------I
G-|-----------------------------------------------------------------I
D-|--3----------------5--------------3-----------------3------2-----I
A-|--3----------------5--------------3-----------------3------2-----I
E-|--1----------------3--------------1-----------------1------0-----I

     F5               G5             F5                F5    E5
Nur damals setzte man Henker ein und heut gibt es die GSG9



CHORUS:

E-|-----------------------------------------------------I
B-|-----------------------------------------------------I
G-|--2--------5-----------------------------------------I
D-|--2--------5-----------------5------------------3----I
A-|--0--------3-----------------5------------------3----I
E-|-----------------------------3------------------1----I
     A5       C5                G5                 F5
  Kopfschuss  -   das war kein Selbstmord das war Mord


FILL IN:
E-|-------------------I
B-|-------------------I
G-|-------------------I
D-|-------------------I
A-|----0-2-3-2-0------I
E-|--1-------------3--I


E-|-------------------------------------------------------I
B-|-------------------------------------------------------I
G-|--2---------5------------------------------------------I
D-|--2---------5----------------5--------------------3----I
A-|--0---------3----------------5--------------------3----I
E-|-----------------------------3--------------------1----I
     A5        C5               G5                   F5
   Kopfschuss  -   ihr habt gelogen seit dem ersten Wort


E-|--------------------------------------------------I
B-|--------------------------------------------------I
G-|--2----------5------------------------------------I
D-|--2----------5-----------------5-------------3----I
A-|--0----------3-----------------5-------------3----I
E-|-------------------------------3-------------1----I
     A5         C5                G5            F5
   Kopfschuss  -   das war ein mieser, feiger Mord


FILL IN:
E-|-------------------I
B-|-------------------I
G-|-------------------I
D-|-------------------I
A-|----0-2-3-2-0------I
E-|--1-------------3--I


E-|--------------------------------------------------------------I
B-|--------------------------------------------------------------I
G-|--2----------5------------------------------------------------I
D-|--2----------5-------------5---------------3------------------I
A-|--0----------3-------------5---------------3------------------I
E-|---------------------------3---------------1------------------I
     A5         C5            G5              F5
   Kopfschuss   -  und ich glaube euch kein Wort, niemehr ein Wort



<INTRO>


VERS:

E-|-------------------------------------------------------------I
B-|-------------------------------------------------------------I
G-|----2--------------------------------------------------------I
D-|----2------------------------------------2-------------------I
A-|----0------------------------------------2-------------------I
E-|-----------------------------------------0-------------------I
       A5                                   E5
Ist die Regierung erst in Panik, gilt weder Ordnung noch Moral


E-|-------------------------------------------------------------I
B-|-------------------------------------------------------------I
G-|--5--------------------------------7-------------------------I
D-|--3--------------------------------7-------------------------I
A-|--3--------------------------------5-------------------------I
E-|-------------------------------------------------------------I
     C5                               D5
Das Gesetz wird ausgeschaltet und das Menschenrecht egal


E-|-------------------------------------------------------------I
B-|-------------------------------------------------------------I
G-|---------2---------------------------------------------------I
D-|---------2-------------------------2-------------------------I
A-|---------0-------------------------2-------------------------I
E-|-----------------------------------0-------------------------I
            A5                        E5
Die Polizei ist Staat im Staat, Selbstherrlichkeit regiert


E-|-----------------------------------------------------------I
B-|-----------------------------------------------------------I
G-|---------5------------------------------7------------------I
D-|---------3------------------------------7------------------I
A-|---------3------------------------------5------------------I
E-|-----------------------------------------------------------I
            C5                            D5
Ist der Staatsfeind lokalisiert, wird auf Rambo-Art agiert


<BRIDGE>

<CHORUS>

<SOLO>


VERS (ohne Gitarre):

Ihr könnt erzählen, was Ihr wollt
Ich glaub' Euch niemals mehr ein Wort
Ihr habt uns immer schon belogen,
habt uns eingelullt und habt uns abgefüllt
unsere Seelen kastriert
und unsere Hirne amputiert
uns manipuliert, uns wegzensiert, uns exekutiert,
doch mir reicht es jetzt:
Ich spiele eure Spiele nicht mehr,
Ich scheiß Euch ins Gesicht


E-|-----------------------------------------------------------I
B-|-----------------------------------------------------------I
G-|--2--------------------------------------------------------I
D-|--2----------5-----3-------2-------------------------------I
A-|--0----------5-----3-------2-------------------------------I
E-|-------------3-----1-------0-------------------------------I
     A5         G5    F5      E5
     Fickt euch!

E-|-----------------------------------------------------------I
B-|-----------------------------------------------------------I
G-|--2--------------------------------------------------------I
D-|--2----------5-----3-------2-------------------------------I
A-|--0----------5-----3-------2-------------------------------I
E-|-------------3-----1-------0-------------------------------I
     A5         G5    F5      E5
     Mörder!



<CHORUS>

<CHORUS + INTRO>





Comments


Popular Wizo tabs & chords
Jupp Bass Tabs
How Could I've Known Chords
Kadett B Chords
Poure De Cire Chords
Alte Frau Tabs
Die Letzte Sau Tabs
Das Goldene Stck Scheisse Ukulele
Kadett B Ukulele
Kein Gerede Ukulele
Raum Der Zeit Ukulele


Song lyrics



↑ Back to top | Tablatures and chords are parodies/interpretations of the original songs. You may use it for private study, scholarship, research or language learning purposes only
© 2014 AZChords.com Contact us | Privacy policy | DMCA | Add/correct tabs | Request tabs | Top 50 tabs