» » »

Wizo, Kein Gerede Tabs (ver.1)

Artists:  A B C D E F G H I J K L M N O P Q R S T U V W X Y Z # 

Kein Gerede Tabs (ver.1)

Wizo Tabs
Rating:
0/5 (0 votes)
Hard to play? Try these video lessons and learn fast.
                -------------------------------------------------------------------------------
------------------------------------------------------------------------------
Ich hab grad irgenwie lust das zu tabben bin aber auch grad zu faul                 , 
kann sein dat der tab net ganz richtig ist und sachen fehlen...

      INTRO

  1 gitarre

e|---------------------------------0-----------------------------------------|
B|--2-0-2-0-2-0---0--2-0-2-0-2-0-2-----3-2-0---3-2-0----5-5-7-5-7-5-7-5-2-0--|
G|--------------2--------------------2-------2-------2-----------------------|
D|---------------------------------------------------------------------------|
A|---------------------------------------------------------------------------|
E|---------------------------------------------------------------------------|
  2gitarre
e|-----------------------------------------------------------------------------------|
B|-----------------------------------------------------------------------------------|
G|--2--------------6-----------------7-------7---------9\----------------------------|
D|--2--------------6-----------------7-------7---------9\----------------------------|
A|--0--------------4-----------------5-------5---------7\----------------------------|
E|-----------------------------------------------------------------------------------|


     BRIDGE (wie das intro nur halt die 2.gitarre spielt das durchgehend)

     Strophe
     p.m--------------------------------------------|
e|--------------------------------------------------|
B|--------------------------------------------------|
G|--------------9-9--9-7-6--------------------------|
D|-----7-7--7---9-9--9-7-6---7-7--7-7-9--11-13-14\--|
A|-----7-7--7--7----7--5-4---7-7--7-7-9--11-13-14\--|
E|---5-----5---------------5----5-----7--9--11-12\--|

e|-----------------------------------------------------------------------------------|
B|-----------------------------------------------------------------------------------|
G|---2------------------------------------2------------------------------------------|
D|---2----------2------------2------------2------------------------------------------|
A|---0----------2------------2------------0------------------------------------------|
E|--------------0------------0-------------------------------------------------------|


        mittelteil
e|-------------------------------------------------------------------------------------|
B|-------------------------------------------------------------------------------------|
G|-----6-6--6-6---7-7---7--------------------------------------------------------------|
D|-----6-6--6-6---7-7---7--------------------------------------------------------------|
A|---4-----4-----5-----5---------------------------------------------------------------|
E|-------------------------------------------------------------------------------------|
    p.m.
e|--------------------------|
B|--------------------------|
G|--------------------------|
D|-------6----6----7----7---|
A|-----44-4-44-4-55-5-55-5--|
E|--------------------------|

      refrain

e|-------------------------------------------------------------------------------------|
B|-------------------------------------------------------------------------------------|
G|------------------7------------------------------------------------------------------|
D|---7-7-7-2-2-3-4--7-7-2--------------------------------------------------------------|
A|---7-7-7-2-2-3-4--5-7-2--------------------------------------------------------------|
E|---5-5-4-0-0-1-2----5-0--------------------------------------------------------------|


| /  slide up
| \  slide down
| h  hammer-on
| p  pull-off
| ~  vibrato
| +  harmonic
| x  Mute note

nebensklo4ever
===============================================================================
            

comments powered by Disqus
↑ Back to top | Wizo Tabs for Kein Gerede. Lyrics for acoustic guitar and electric guitar. Tablatures and chords are parodies/interpretations of the original songs. You may use it for private study, scholarship, research or language learning purposes only