» » »

Jupp Bass tabs (ver.1)

Artists:  A B C D E F G H I J K L M N O P Q R S T U V W X Y Z # 

Jupp Bass tabs (ver.1)

Wizo
Rating:
0/5 (0 votes)

Hard to play? Try these video lessons and learn fast.
                Song Title: Jupp

  JUPP ist ein,wie ich finde sehr tiefgründiger Song und ich finde ihn super,auch weil 
wirklich einfach zu spielen ist

 Nach dem Gitarren Intro


   E |----------------|3-3-3-3-2-2-2-2-|
   A |2-2-2-2-2-2-2-2-|----------------|
   D |----------------|----------------|
   G |----------------|----------------|

       das immer wiederholen und der Refrain wird dann so gespielt


   E |----------------|3-3-3-3-2-2-2-2-|
   A |2---2---2-2-2---|----------------|
   D |----------------|----------------|
   G |----------------|----------------|

  während dem solo wieder das erste riff spielen und fertig


 please rate my tab
            
Hard to play? Try these video lessons and learn fast. | Correct




comments powered by Disqus
↑ Back to top | Tablatures and chords are parodies/interpretations of the original songs. You may use it for private study, scholarship, research or language learning purposes only