» » »

Wizo, Irgendwo-Nirgendwo Tabs (ver.2)

Artists:  A B C D E F G H I J K L M N O P Q R S T U V W X Y Z # 

Irgendwo-Nirgendwo Tabs (ver.2)

Wizo Tabs
 Rating:
4/5 (4 votes)
Irgendwo-Nirgendwo lessons Tabs too difficult? Try these video lessons and learn fast
1
                WIZO - Irgendwo-Nirgendwo




INTRO
e|---12----------------------------|--12-----------------------|
B|------12----10-------------------|-----12----10--------------|
G|*--------12----11-11-12-11----9--|--------12----11-12----9--*|
D|*--------------------------12----|--------------------12----*|
A|---------------------------------|---------------------------|
E|---------------------------------|---------------------------|
 |
 |   P.M.__________________________
e|------------------------------------|
B|------------------------------------|
G|*--------2--2-2-2--5-5-5-----------*|
D|*--2-2-2-2--2-2-2--5-5-5-2--2-2-2--*|
A|---2-2-2-0--0-0-0--3-3-3-2--2-2-2---|
E|---0-0-0-----------------0--0-0-0---|


VERSE
     P.M.___________________________
e|-------------------------------------|     e|---------------------|
B|-------------------------------------|     B|---------------------|
G|*----------2-2-2-2-5-5-5-5----------*|     G|----2-5-----2-5-7-9--|
D|*--2-2-2-2-2-2-2-2-5-5-5-5-2-2-2-2--*|     D|--5-2-5-2-5-2-5-7-9--|
A|---2-2-2-2-0-0-0-0-3-3-3-3-2-2-2-2---|     A|--5-0-3-2-5-0-3-5-7--|
E|---0-0-0-0-----------------0-0-0-0---|     E|--3-----0-3----------|
            
Submit corrections

comments powered by Disqus
↑ Back to top | Wizo Tabs for Irgendwo-Nirgendwo. Lyrics for acoustic guitar and electric guitar. 1 Tablatures and chords are parodies/interpretations of the original songs. You may use it for private study, scholarship, research or language learning purposes only