» » »

Wizo, Irgendwo-Nirgendwo Tabs (ver.1)

Artists:  A B C D E F G H I J K L M N O P Q R S T U V W X Y Z # 

Irgendwo-Nirgendwo Tabs (ver.1)

Wizo Tabs
 Rating:
4/5 (4 votes)
Irgendwo-Nirgendwo lessons Tabs too difficult? Try these video lessons and learn fast
                # intro guitar 1 #


e--12----------------------------12----------------------|
b-----12----10----------------------12----10-------------|
g--------12----11-11-12-11----9--------12----11-12----9--|
d--------------------------12----------------------12----| x 2
A--------------------------------------------------------|
E--------------------------------------------------------|

   
    
    # intro guitar 2 #

   P.M. .........................
e----------------------------------|
b----------------------------------|
g--------2--2-2-2--5-5-5-----------|
d--2-2-2-2--2-2-2--5-5-5-2--2-2-2--| x 4
A--2-2-2-0--0-0-0--3-3-3-2--2-2-2--|
E--0-0-0-----------------0--0-0-0--|

    
    # verse 1 guitar 1 # ( x 2 )

   P.M. ..........................
e-----------------------------------     ---------------------|
b-----------------------------------     ---------------------|
g----------2-2-2-2-5-5-5-5----------     ----2-5-----2-5-7-9--|
d--2-2-2-2-2-2-2-2-5-5-5-5-2-2-2-2-- x 2 --5-2-5-2-5-2-5-7-9--|
A--2-2-2-2-0-0-0-0-3-3-3-3-2-2-2-2--     --5-0-3-2-5-0-3-5-7--|
E--0-0-0-0-----------------0-0-0-0--     --3-----0-3----------|
   Du bist hier und doch nicht da...    ...in deinen Augen...

    
    # verse 1 guitar 2 # ( x 2 )

   
e-----------------------------------     ---------------------|
b-----------------------------------     ---------------------|
g-----------------------------------     ----2-5-----2--------| 
d---------------------------------- x 2  --5-2-5-2-5-2-5-4-2--|
A-----------------------------------     --5-0-3-2-5-0-5-4-2--|
E-----------------------------------     --3-----0-3---3-2-0--|
   Du bist hier und doch nicht da...    ...in deinen Augen...


    # refrain #  the guitar in this part plays very silent in  
                 the backround so it’s very hard to find the 
                 right rythm. I wrote the text under the tabs 
                 so you see when to play the right note:

e--------------------------------------------------------------
b--------------------------------------------------------------
g--7--------------------------------------------5--------------
d--7-----------------2--------------------------5----5---------
A--5-----------------2--------------------------3----5---------
E--------------------0-------------------------------3---------
   Ahhhh du hast mir nichts gesagt du hast mich weggeworfen und


  ------------------------|
  ------------------------|
  ------------------------|
  --------3--------5------|
  --------3--------5------|
  --------1--------3------|
    meine seele zermalmt


   # bridge #  guitar 1 and 2 play the same like in the intro.


   # verse 2 guitar 1#  the same like in verse 1 
   

   # verse 2 guitar 2#    


if you listen to the song you’ll hear two small guitar parts sounding like this :

   e-----------------|
   b------------5----|
   g------------4----|
   d----20-----------|
   A------20---------|
   E--------320------|
       
After the second time you have to play this 3 times :

   e---------|
   b----5----|
   g----4----|
   d---------|
   A---------|
   E---------|


    # refrain # 


    # verse 3 guitar 1 #  completely different melody than 1 & 2


e---------------------------|
b----7-----5-7-8-8-8-8-7-5--|
g------7-------7-7-7-7-7-6--|
d---------------------------| x 10 or 11
A---------------------------|
E---------------------------|


   # verse 3 guitar 2 #

e---------------------------|
b---------------------------|
g--7------------------------|
d--7-----7-----5-----7------| x 10 or 11
A--5-----7-----5-----7------|
E--------5-----3-----5------|
            
Submit corrections

comments powered by Disqus
↑ Back to top | Wizo Tabs for Irgendwo-Nirgendwo. Lyrics for acoustic guitar and electric guitar. Tablatures and chords are parodies/interpretations of the original songs. You may use it for private study, scholarship, research or language learning purposes only