» » »

Wizo, Deutschpunkrevolte Chords (ver.2)

Artists:  A B C D E F G H I J K L M N O P Q R S T U V W X Y Z # 

Deutschpunkrevolte Chords (ver.2)

Wizo Tabs
Rating:
0/5 (0 votes)
Deutschpunkrevolte lessons Tabs too difficult? Try these video lessons and learn fast
                Ja ich weiß das der Song nicht von Wizo sondern von WTZ ist, aber ich denke mal 
das Lied wird warscheinlich von mehr Leuten unter Wizo gesucht. ;)
Deswegen hab ich das hier unter Wizo reingestellt.


Ich glaube der Tab ist zu 100 % richtig, nur beim Ende vom Outro bin ich mir 
nicht ganz sicher, aber ich glaube das stimmt so ;). Das ist mein 1. Tab :)

WTZ    - Deutschpunkrevolte
Tuning - Standard 

Akkorde(Powerchords):

   G  A  B      C      Eb
e|------------------------|
B|------------------------|
G|----------------5----8--|
D|-5--7--9--10-or-5----8--|
A|-5--7--9--10-or-3----6--|
E|-3--5--7---8-or---------|



    
G:-------------------------------------------|
D:-------------------------------------------|    
A:----------------------------------6666-----|  x3
E:-5555-77-88-5555-77-88-5555-77-88------8888|

1. mal Bass alleine, ab dem 2. Mal mit Gitarre

Intro: 

   A    B   C    A    B  C   A    B   C   Eb   C 
e:-------------------------------------------------|
H:-------------------------------------------------|
G:----------------------------------------8888-5555|
D:-7777-99-1010-7777-99-1010-7777-99-1010-8888-5555|    
A:-7777-99-1010-7777-99-1010-7777-99-1010-6666-3333|  x2
E:-5555-77--8-8-5555-77--8-8-5555-77--8-8----------|

Verse:

A                            Eb
Am Himmel ist es dunkel, die Strassen sieht man nicht. 

C                                A
Ploetzlich fliegt ein Molly, und ueberall wird licht. 

A                                  Eb
Drueben steht die Staatsmacht, und hier der schwarze Block. 

C                      A
Bullenkampfroboter mit Schutzschild, Helm und Stock. 


Pre Chorus:

G                         A
Sie haben ihre Waffen und woll'n uns provoziern. 

    G                       Eb                 C
Sie haben keine Chance, wir ham nichts zu verliern.

Chorus x2: 

A             B   C        A          B       C
Krieg auf der Strasse, ihr habt es so gewollt 

A             B   C    Eb            C
Krieg auf der Strasse, Deutschpunkrevolte 


Bridge:

Bass:

G:-------------------------------------------|
D:-------------------------------------------|    
A:----------------------------------6666-----| x2
E:-5555-77-88-5555-77-88-5555-77-88------8888|


Gitarre:
                                    Eb   C
e:-------------------------------------------|
H:-------------------------------------------|
G:----------------------------------8888-5555|
D:----------------------------------8888-5555|    
A:----------------------------------6666-3333|  
E:-------------------------------------------|

   A    B   C    A    B  C   A    B   C   Eb   C 
e:-------------------------------------------------|
H:-------------------------------------------------|
G:----------------------------------------8888-5555|
D:-7777-99-1010-7777-99-1010-7777-99-1010-8888-5555|    
A:-7777-99-1010-7777-99-1010-7777-99-1010-6666-3333|  
E:-5555-77--8-8-5555-77--8-8-5555-77--8-8----------|



Outro:

A          B C      A          B C      A          B C
Deutschpunkrevolte, Deutschpunkrevolte, Deutschpunkrevolte 

    Eb           C
ihr habt es so gewollt. 

A          B C      A          B C      A          B C
Deutschpunkrevolte, Deutschpunkrevolte, Deutschpunkrevolte 

    Eb             C      A
wir werden Sieger sein. 
            

comments powered by Disqus
↑ Back to top | Wizo Chords for Deutschpunkrevolte. Lyrics for acoustic guitar and electric guitar. Tablatures and chords are parodies/interpretations of the original songs. You may use it for private study, scholarship, research or language learning purposes only