» » »

Wizo, Das Goldene StüCk Scheisse Tabs (ver.1)

Artists:  A B C D E F G H I J K L M N O P Q R S T U V W X Y Z # 

Das Goldene StüCk Scheisse Tabs (ver.1)

Wizo Tabs
 Rating:
4/5 (4 votes)
Das Goldene StüCk Scheisse lessons Tabs too difficult? Try these video lessons and learn fast
                Intro:

G:
-----3-----3---------3-----3--------
-------3-----3---3-----3-----3---3--
---0-----0-----0---0-----0-----0----
------------------------------------
------------------------------------
------------------------------------

E:
-----0-----0------------------------
-------0-----0---0------------------
------------------------------------
---2-----2-----2--------------------
------------------------------------
------------------------------------

C:
-----0-----0------------------------
-------1-----1---1------------------
---------0-----0--------------------
------------------------------------
---3--------------------------------
------------------------------------

D:
-----2-----0-2----------------------
-------3-------3--------------------
---------2-------2------------------
---0--------------------------------
------------------------------------
------------------------------------

h:
------------------------------------
-----4-----4------------------------
-------4-----4---4------------------
---------4-----4--------------------
---2--------------------------------
------------------------------------

G                                     e
Ihr fetten Schweine sitzt in Bonn und laßt es euch gut geh'n
        C                                    D
Während all die Menschen, die euch glaubten, vor die Hunde geh'n
         G                          e
Ihr habt sie belogen und seid dabei nicht mal rot geworden
         C                             D
Ihr habt damit Schuld am Haß, an der Gewalt und an den Morden
         G                               e
Und wenn jetzt die braune Nazibrut gegen Minderheiten hetzt
          C                           D
Gießt ihr Öl ins Feuer und ihr ändert kurz das Grundgesetz
        h                           e                C
Und der kleine Vollidiot mit seinem Brandsatz in der Hand
               G         D             G
Fühlt sich als legitimer Rächer seines Vaterlands

(Ab hier dann, volle Akkorde)
            G             D               e
 REF:   Das goldene Stück Scheiße geht an euch
                 C               D
    Denn ihr habt es echt verdient
                 G            H                   C                 D
    Ihr habt hart dafür gekämpft und deshalb sollt ihr es auch haben
            C             D               G
    Das goldene Stück Scheiße geht an euch

(Hier wieder, das Gezupfe da oben)

In den letzten Jahren bist du viel herumgereist
Und hast manchen Flugplatz auf der Welt geküßt
Jedes Jahr auf deinem Open Air am Petersplatz 
Hast du immer einen tollen Spruch gewußt
Du kennst deine Bibel aus dem Kopf und weißt, daß darin steht,
Daß Verhütung eine Sünde ist und deshalb nicht erlaubt
Und noch immer sterben Kinder, weil sie nix zu fressen hab'n
Doch wehe dem, der nicht an deine Lügen glaubt
    
    Scheiß Solo

Das goldene Stück Scheiße geht an dich und auch an mich
Denn wir sabbeln hier noch immer nur blöd rum
Wir bleiben doof und sterben dumm und hab'ns besser nicht verdient
Durch jammern ist noch niemals was passiert

    Ja, das goldene Stück Scheiße geht an uns
    Denn wir haben's uns echt verdient
    Wir haben noch immer nichts getan und deshalb soll'n wir es auch kriegen
    Das goldene Stück Scheiße geht an uns

    Das goldene Stück Scheiße geht an mich
    Denn ich hab's mir echt verdient
    Ich hab hart dafür gekämpft und darum will ich es auch haben
    Das goldene Stück Scheiße
    Ja, das goldene Stück Scheiße
    Das goldene Stück Scheiße geht an mich


Das solo, ist einfach! ICh mach mal den Anfang, den Rest macht ihr selber! KApiert????

---7-7777-----------------7-8-------
----------10-10-8-8--8-10-----------
--7---------------------------------
------------------------------------
------------------------------------
------------------------------------
            
Submit corrections

comments powered by Disqus
↑ Back to top | Wizo Tabs for Das Goldene StüCk Scheisse. Lyrics for acoustic guitar and electric guitar. Tablatures and chords are parodies/interpretations of the original songs. You may use it for private study, scholarship, research or language learning purposes only