» » »

Ice Queen Tabs (ver.1)

Artists:  A B C D E F G H I J K L M N O P Q R S T U V W X Y Z # 

Ice Queen Tabs (ver.1)

Within Temptation
Rating:
4/5 (4 votes)

Hard to play? Try these video lessons and learn fast.
                ----------------------------------------------------------
----------------------------------------------------------

Too many wrong tabs out there.. (so here is another one) ;)
Actually had to make some adjustments to this one.
Now it's perfect ;)


Intro:
e|---------------------------------------------------
B|---------------------------------------------------
G|---------------------------------------------------
D|-6--6--6--6--2-2--2-2--2--6--6--6--6---------------
A|-6--6--6--6--2-2--2-2--2--6--6--6--6--4-4--4-4--4--
E|-4--4--4--4--0-0--0-0--0--4--4--4--4--4-4--4-4--4--
                                       (2-2--2-2--2)

You really need a dropped tuning to play the full chord, but this
works fine with normal tuning.

e|--------------------------------------------------
B|--------------------------------------------------
G|--------------------------4--4--4--4--3--3--3--3--
D|-6--6--6--6--2-2--2-2--2--4--4--4--4--3--3--3--3--
A|-6--6--6--6--2-2--2-2--2--2--2--2--2--1--1--1--1--
E|-4--4--4--4--0-0--0-0--0--------------------------


Brigde to verse:
e|-----------------||------
B|-----------------||------
G|-4--4--4-4--4-4--||-4-3--
D|-4--4--4-4--4-4--||-4-3--
A|-2--2--2-2--2-2--||-2-1--
E|-----------------||------
	repeat 2x

Verse:
e|-------------------------------------------------
B|-------------------------------------------------
G|-------------------------4--4--4--4--------------
D|-6--6--6--6--2--2--2--2--4--4--4--4--4--4--4--4--
A|-6--6--6--6--2--2--2--2--2--2--2--2--4--4--4--4--
E|-4--4--4--4--0--0--0--0--------------2--2--2--2--


After verse:
e|-------------------------------------------------------
B|-------------------------------------------------------
G|-------------------------------4--4--4--4--------------
D|------6-6-------6-6-------6-6--4--4--4--4--4--4--4--4--
A|-4-4--6-6--4-4--6-6--4-4--6-6--2--2--2--2--4--4--4--4--
E|-4-4--4-4--4-4--4-4--4-4--4-4--------------2--2--2--2--

e|------------------------------------
B|------------------------------------
G|------------------------------------
D|------6-6-------6-6---2~~~~--4~~~~--
A|-4-4--6-6--4-4--6-6---2~~~~--4~~~~--
E|-4-4--4-4--4-4--4-4---0~~~~--2~~~~--
			~ = let ring

Verse:
e|-------------------------------------------------
B|-------------------------------------------------
G|-------------------------4--4--4--4--------------
D|-6--6--6--6--2--2--2--2--4--4--4--4--4--4--4--4--
A|-6--6--6--6--2--2--2--2--2--2--2--2--4--4--4--4--
E|-4--4--4--4--0--0--0--0--------------2--2--2--2--


Quiet part: (only bass here, but if you want to play, here it is)
e|-------------------------------------
B|-------------------------------------
G|--------------------------4--3-------
D|-2---------6----4----2----4--3--6----
A|-2----4----6----4----2----2--1--6----
E|-0----4----4----2----0----------4----


Back to intro:
e|--------------------------------------------------
B|--------------------------------------------------
G|--------------------------------------------------
D|-6--6--6--6--2-2--2-2--2--6--6--6--6--------------
A|-6--6--6--6--2-2--2-2--2--6--6--6--6--4-4--4-4--4-
E|-4--4--4--4--0-0--0-0--0--4--4--4--4--4-4--4-4--4-

e|--------------------------------------------------
B|--------------------------------------------------
G|--------------------------4--4--4--4--3--3--3--3--
D|-6--6--6--6--2-2--2-2--2--4--4--4--4--3--3--3--3--
A|-6--6--6--6--2-2--2-2--2--2--2--2--2--1--1--1--1--
E|-4--4--4--4--0-0--0-0--0--------------------------


Brigde to verse:
e|-----------------------
B|-----------------------
G|-4--4--4-4--4-4---4-3--
D|-4--4--4-4--4-4---4-3--
A|-2--2--2-2--2-2---2-1--
E|-----------------------


Verse:
e|-------------------------------------------------
B|-------------------------------------------------
G|-------------------------4--4--4--4--------------
D|-6--6--6--6--2--2--2--2--4--4--4--4--4--4--4--4--
A|-6--6--6--6--2--2--2--2--2--2--2--2--4--4--4--4--
E|-4--4--4--4--0--0--0--0--------------2--2--2--2--


After verse:
e|-------------------------------------------------------
B|-------------------------------------------------------
G|-------------------------------4--4--4--4--------------
D|------6-6-------6-6-------6-6--4--4--4--4--4--4--4--4--
A|-4-4--6-6--4-4--6-6--4-4--6-6--2--2--2--2--4--4--4--4--
E|-4-4--4-4--4-4--4-4--4-4--4-4--------------2--2--2--2--

e|------------------------------------
B|------------------------------------
G|------------------------------------
D|------6-6-------6-6---2~~~~--4~~~~--
A|-4-4--6-6--4-4--6-6---2~~~~--4~~~~--
E|-4-4--4-4--4-4--4-4---0~~~~--2~~~~--
			~ = let ring

Quiet part: (only this time with guitar, and not that quiet)
e|-------------------------------------
B|-------------------------------------
G|--------------------------4--3-------
D|-2---------6----4----2----4--3--6----
A|-2----4----6----4----2----2--1--6----
E|-0----4----4----2----0----------4----
	repeat 2x


There! That wasn't so hard was it?
Good luck!
            
Hard to play? Try these video lessons and learn fast. | Correct




comments powered by Disqus
↑ Back to top | Tablatures and chords are parodies/interpretations of the original songs. You may use it for private study, scholarship, research or language learning purposes only