>
 >
Demonication

Demonication Guitar Tabs

Witchery - Demonication chords, tabs, tablatures, lyrics

Guitar lessons | Add/correct | Request | Top 50 tabs Artists:  A B C D E F G H I J K L M N O P Q R S T U V W X Y Z 0-9

Demonication Guitar Tabs – Witchery

CD, Sheet music, Poster

Do you like Demonication? Share with your friends now
Tabs
                             WITCHERY - DEMONICATION
                         From the Album DEAD, HOT & READY
                         Copyright 1999 NECROPOLIS RECORDS
                     
                            Version 1.0 - JUNE 2000


For Questions, Comments, Newest Version, or Corrections contact

Check Out Death Warp, With More Transcriptions On It:

Join the death/black tab emailing list by emailing 

..  - palm mute          /  - slide up to
 \  - slide down to      ~  - vibrato
 h  - hammer on          b  - bend
 p  - pull off            Suffixes for bend
                          ph - pinch harmonic
                           f - full bend    h - half bend
*  - see comment           r - release      t - tap bend
X  - percussion mute       ~ - vibrato bend
@  - slight palm mute     () - ghost note, sustained note



Witchery - Demonication





Intro		    Riff 1
|------------------|-------------------------|----------------------------------|
|------------------|-------------------------|----------------------------------|
|-3----------------|-------------------------|----------------------------------|
|-3--------3-3-3-3-|-5----7----5----7----2-5-|-----7-----5-----2-2--------------|
|-1--------3-3-3-3-|-5----7----5----7----2-5-|-----7-----5-----2-2--------------|
|----------1-1-1-1-|---00---00---00---00-----|-000---000---000-0-0--------------|
                       ..   ..   ..   ..       ...   ...   ...

|-------------------------------------------------------------------------------|
|-------------------------------------------------------------------------------|
|-2----23-----2----23-----------------------------------------------------------|
|-2----23-----2----23-----------------------------------------------------------|
|---00----000---00----000-------------------------------------------------------|
|-------------------------------------------------------------------------------|
    ..    ...   ..    ...

Chorus
|-------------------------------------------------------------------------------|
|-------------------------------------------------------------------------------|
|-9--7--6--5----9--7--6--5----9--7--6--5----------------------------------------|
|-9--7--7--5----9--7--7--5----9--7--7--5----------------------------------------|
|-7--5--4--3----7--5--4--3----7--5--4--3----------------------------------------|
|-----------------------------------------3-0-00222222002222220022222200222222--|
                                              ................................

Riff 2
|-------------------------------------------------------------------------------|
|-------------------------------------------------------------------------------|
|-------------------------------------------------------------------------------|Guitar 1
|-00000000000000000000000000000000----------------------------------------------|
|-------------------------------------------------------------------------------|
|-------------------------------------------------------------------------------|
  ................................                                              |
				                                                |
				                                                |
				                                                |
				                                                |
|-1----3---1---4---3---1-----1--------------------------------------------------|
|-1----3---1---4---3---1---3-1--------------------------------------------------|
|--------------------------2----------------------------------------------------|
|---00---0---0---0---0---0-----0------------------------------------------------|Guitar 2
|-------------------------------------------------------------------------------|
|-------------------------------------------------------------------------------|
    ..   .   .   .   .   .     .



Riff 3
|-------------------------------------------------------------------------------|
|-------------------------------------------------------------------------------|
|-2--4----5--4----2--4--------------2--4----5--4----2--4-------5-5-5------------|
|-2--4----5--4----2--4--------------2--4----5--4----2--4-------3-3-3------------|
|-0--2----3--2----0--2----3205~-323-0--2----3--2----0--2----320-----------------|
|-------------------------------------------------------------------------------|
                          ...   ...                         ...



Rhythm on solo (first play riff 2)
|-------------------------------------------------------------------------------|
|-------------------------------------------------------------------------------|
|-----------------------------------------5-2-4----4----------------------------|
|-7--5--4--3----7--5--4--3----7--5--4--3--5-2-4----4----------------------------|
|-7--5--5--3----7--5--5--3----7--5--5--3--3-0-2----2----------------------------|
|-5--3--2--1----5--3--2--1----5--3--2--1----------------------------------------|


Riff 4
|-------------------------------------------------------------------------------|
|-------------------------------------------------------------------------------|
|-------------------------------------------------------------------------------|
|-5----4----5----4----5777-5----4----5----2-2-2-2-------------------------------|
|-5----4----5----4----5777-5----4----5----2-2-2-2-------------------------------|
|---00---00---00---00--------00---00---00-0-0-0-0-------------------------------|
    ..   ..   ..   ..        ..   ..   ..





Comments


Popular Witchery tabs & chords
A Paler Shade Of Death Tabs
Born In The Night Tabs
Omens Tabs
Resurrection Tabs
The Guillotine Tabs
The Reaper Tabs


Song lyrics



↑ Back to top | Tablatures and chords are parodies/interpretations of the original songs. You may use it for private study, scholarship, research or language learning purposes only
© 2014 AZChords.com Contact us | Privacy policy | DMCA | Add/correct tabs | Request tabs | Top 50 tabs