» » »

Youth Of America Bass tabs (ver.1)

Artists:  A B C D E F G H I J K L M N O P Q R S T U V W X Y Z # 

Youth Of America Bass tabs (ver.1)

Wipers
Rating:
0/5 (0 votes)

Tabs too difficult? Try these video lessons and learn fast.
                Youth of America by the Wipers
Bassist: ?????

Intro:----------------------------------------------------------|
----------------------------------------------------------------|
--------5-----5-------------------------------------------------|
--5--1-----1----------------------------------------------------|

(of course that's not the picking but it'd be too long if I tabbed the picking out)

Verse:----------------------------------------------------------|
----------------------------------------------------------------|
---5-5-5-5-3--5-5-5-5-3--5-5-5-5-3------------------------------|
------------------------------------1-1-1-1-1-1-1---------------|

Chorus:---------------------------------------------------------|
----------------------------------------------------------------|
-----1------6--1--6--1------------------------------------------|
--3-----1---------------1---------------------------------------|

"It is time to rectify this now..." part ^^^^^^^^^^^^^^^^^^^^^^^
(of course that's not the picking for that part either but it's the notes
for it)

During whole interlude:-----------------------------------------|
----------------------------------------------------------------|
---5-5-5-5-3---5-5-5-5-3---5-5-5-5-3----------------------------|
----------------------------------------------------------------|

(You can make your own little fills if you want also)

The Melvins also covered this song.
            
Tabs too difficult? Try these video lessons and learn fast.




comments powered by Disqus
↑ Back to top | Tablatures and chords are parodies/interpretations of the original songs. You may use it for private study, scholarship, research or language learning purposes only