>
 >
When Its Over

When Its Over Guitar Tabs

Wipers - When Its Over chords, tabs, tablatures, lyrics

Guitar lessons | Add/correct | Request | Top 50 tabs Artists:  A B C D E F G H I J K L M N O P Q R S T U V W X Y Z 0-9

When Its Over Guitar Tabs – Wipers

CD, Sheet music, Poster

Do you like When Its Over? Share with your friends now
Tabs
When It's Over (Props go to John Sixkiller)

E----------------------------------------------------------------------
B----------------------------------------------------------------------
G--9-9-9-9-9-9-9-9--7-7-7-7-7-7-7-7--7-7-7-7-7-7-7-7--9-9-9-9-9-9-9-9--
D--9-9-9-9-9-9-9-9--7-7-7-7-7-7-7-7--7-7-7-7-7-7-7-7--9-9-9-9-9-9-9-9--
A----------------------------------------------------------------------
E----------------------------------------------------------------------

E----------------------------------------------------------------------
B----------------------------------------------------------------------
G--9-9-9-9-9-9-9-9--7-7-7-7-7-7-7-7--7-7-7-7-7-7-7-7--9-9-9-9-9-9-9-9--
D--9-9-9-9-9-9-9-9--7-7-7-7-7-7-7-7--7-7-7-7-7-7-7-7--9-9-9-9-9-9-9-9--
A----------------------------------------------------------------------
E----------------------------------------------------------------------

E--------------------------------------------------------------------------------------
B--------------------------------------------------------------------------------------
G--9-9-9-9-9-9-9-9--7-7-7-7-7-7-7-7--12-12-12-12-12-12-12-12--11-11-11-11-11-11-11-11--
D--9-9-9-9-9-9-9-9--7-7-7-7-7-7-7-7--12-12-12-12-12-12-12-12--11-11-11-11-11-11-11-11--
A--------------------------------------------------------------------------------------
E--------------------------------------------------------------------------------------

E--------------------------------------------------------------------------------------
B--------------------------------------------------------------------------------------
G--9-9-9-9-9-9-9-9--7-7-7-7-7-7-7-7--12-12-12-12-12-12-12-12--11-11-11-11-11-11-11-11--
D--9-9-9-9-9-9-9-9--7-7-7-7-7-7-7-7--12-12-12-12-12-12-12-12--11-11-11-11-11-11-11-11--
A--------------------------------------------------------------------------------------
E--------------------------------------------------------------------------------------

E---------------------------------------------------------------------------------------------------
B---------------------------------------------------------------------------------------------------
G-12-12-12-12-12-12-12-12--11-11-11-11-11-11-11-11--12-12-12-12-12-12-12-12--11-11-11-11-11-11-11-11
D-12-12-12-12-12-12-12-12--11-11-11-11-11-11-11-11--12-12-12-12-12-12-12-12--11-11-11-11-11-11-11-11
A-10-10-10-10-10-10-10-10---9--9--9--9--9--9--9--9--10-10-10-10-10-10-10-10---9--9--9--9--9--9--9--9
E---------------------------------------------------------------------------------------------------

E---------------------------------------------------------------------------
B---------------------------------------------------------------------------
G--9-9-9-9-9-9-9-9------------------------------------11-11-11-11-11-11-11--
D--9-9-9-9-9-9-9-9--7-7-7-7-7-7-7-7--9-9-9-9-9-9-9-9--11-11-11-11-11-11-11--
A--7-7-7-7-7-7-7-7--7-7-7-7-7-7-7-7--9-9-9-9-9-9-9-9---9--9--9--9--9--9--9--
E-------------------5-5-5-5-5-5-5-5--7-7-7-7-7-7-7-7------------------------

E--------------------------------------------------------------------------------------
B--------------------------------------------------------------------------------------
G--12-X-X-11-X-X-12-X-X-11-X-X-12-12-12-12--12-X-X-11-X-X-9-X-X-14-X-X-14-14-14-14-14--
D--12-X-X-11-X-X-12-X-X-11-X-X-12-12-12-12--12-X-X-11-X-X-9-X-X-14-X-X-14-14-14-14-14--
A--10-X-X--9-X-X-10-X-X--9-X-X-10-10-10-10--10-X-X--9-X-X-7-X-X-12-X-X-12-12-12-12-12--
E--------------------------------------------------------------------------------------

E------------------------------------------------------------------------------------
B------------------------------------------------------------------------------------
G--14-X-X-11-X-X-12-X-X-9-X-X-11-11-11-11--11-X-X-----------------9-X-X-11-11-11-11--
D--14-X-X-11-X-X-12-X-X-9-X-X-11-11-11-11--11-X-X-----------------9-X-X-11-11-11-11--
A--12-X-X--9-X-X-10-X-X-7-X-X--9--9--9--9---9-X-X----7-X-X-9-X-X--7-X-X--9--9--9--9--
E----------------------------------------------------5-X-X-7-X-X---------------------

E---------------------------------------------------------------------------------
B---------------------------------------------------------------------------------
G--12-X-X-11-X-X-12-X-X-11-X-X-12-12-12-12--12-X-X-11-X-X-12-X-X-11--11-11-11-11--
D--12-X-X-11-X-X-12-X-X-11-X-X-12-12-12-12--12-X-X-11-X-X-12-X-X-11--11-11-11-11--
A--10-X-X--9-X-X-10-X-X--9-X-X-10-10-10-10--10-X-X--9-X-X-10-X-X--9---9--9--9--9--
E---------------------------------------------------------------------------------

E---------------------------------------------------------------------------------
B---------------------------------------------------------------------------------
G--12-X-X-11-X-X-12-X-X-11-X-X-12-12-12-12--12-X-X-11-X-X-12-X-X-11--11-11-11-11--
D--12-X-X-11-X-X-12-X-X-11-X-X-12-12-12-12--12-X-X-11-X-X-12-X-X-11--11-11-11-11--
A--10-X-X--9-X-X-10-X-X--9-X-X-10-10-10-10--10-X-X--9-X-X-10-X-X--9---9--9--9--9--
E---------------------------------------------------------------------------------

E-----------------------------------------------------10--11--12--11---13--14--15--14~~~--
B------------------------------------12--13--14--13---------------------------------------
G--11--12--13--12---14--15--16--15--------------------------------------------------------
D-----------------------------------------------------------------------------------------
A-----------------------------------------------------------------------------------------
E-----------------------------------------------------------------------------------------

E--12-13-12--10b-10-10b-10---12-13-12--10b-10-10b-10---12-13-12--10b-10-10b-10---
B--12-13-12--10b-10-10b-10---12-13-12--10b-10-10b-10---12-13-12--10b-10-10b-10---
G--------------------------------------------------------------------------------
D--------------------------------------------------------------------------------
A--------------------------------------------------------------------------------
E--------------------------------------------------------------------------------

E--12-13-12--10b-10-10b-10---12-13-12--10b-10-10b-10---12-13-12--10b-10-10b-10---
B--12-13-12--10b-10-10b-10---12-13-12--10b-10-10b-10---12-13-12--10b-10-10b-10---
G--------------------------------------------------------------------------------
D--------------------------------------------------------------------------------
A--------------------------------------------------------------------------------
E--------------------------------------------------------------------------------

E--12-13-12--10b-10-10b-10----------------------------------------14-14~~~--
B--12-13-12--10b-10-10b-10-------------------10-12--12-14--14-15------------
G------------------------------11-12--12-14---------------------------------
D---------------------------------------------------------------------------
A---------------------------------------------------------------------------
E---------------------------------------------------------------------------

E------------------------------------------------------------------------------
B------------------------------------------------------------------------------
G--11-12-11--9-7-9-7--11-12-11--9-7-9-7--11-12-11--9-7-9-7--11-12-11--9-7-9-7--
D---X--X--X--X-X-X-X---X--X--X--X-X-X-X---X--X--X--X-X-X-X---X--X--X--X-X-X-X--
A---9-10--9--7-5-7-5---9-10--9--7-5-7-5---9-10--9--7-5-7-5---9-10--9--7-5-7-5--
E------------------------------------------------------------------------------

E---------------------------------------------------------------------------------
B---------------------------------------------------------------------------------
G--12-X-X-11-X-X-12-X-X-11-X-X-12-12-12-12--12-X-X-11-X-X-12-X-X-11--11-11-11-11--
D--12-X-X-11-X-X-12-X-X-11-X-X-12-12-12-12--12-X-X-11-X-X-12-X-X-11--11-11-11-11--
A--10-X-X--9-X-X-10-X-X--9-X-X-10-10-10-10--10-X-X--9-X-X-10-X-X--9---9--9--9--9--
E---------------------------------------------------------------------------------

E---------------------------------------------------------------------------------
B---------------------------------------------------------------------------------
G--12-X-X-11-X-X-12-X-X-11-X-X-12-12-12-12--12-X-X-11-X-X-12-X-X-11--11-11-11-11--
D--12-X-X-11-X-X-12-X-X-11-X-X-12-12-12-12--12-X-X-11-X-X-12-X-X-11--11-11-11-11--
A--10-X-X--9-X-X-10-X-X--9-X-X-10-10-10-10--10-X-X--9-X-X-10-X-X--9---9--9--9--9--
E---------------------------------------------------------------------------------

E--------------------------------------------------------------------------------------
B--------------------------------------------------------------------------------------
G--12-X-X-11-X-X-12-X-X-11-X-X-12-12-12-12--12-X-X-11-X-X-9-X-X-14-X-X-14-14-14-14-14--
D--12-X-X-11-X-X-12-X-X-11-X-X-12-12-12-12--12-X-X-11-X-X-9-X-X-14-X-X-14-14-14-14-14--
A--10-X-X--9-X-X-10-X-X--9-X-X-10-10-10-10--10-X-X--9-X-X-7-X-X-12-X-X-12-12-12-12-12--
E--------------------------------------------------------------------------------------

E------------------------------------------------------------------------------------
B------------------------------------------------------------------------------------
G--14-X-X-11-X-X-12-X-X-9-X-X-11-11-11-11--11-X-X-----------------9-X-X-11-11-11-11--
D--14-X-X-11-X-X-12-X-X-9-X-X-11-11-11-11--11-X-X-----------------9-X-X-11-11-11-11--
A--12-X-X--9-X-X-10-X-X-7-X-X--9--9--9--9---9-X-X----7-X-X-9-X-X--7-X-X--9--9--9--9--
E----------------------------------------------------5-X-X-7-X-X---------------------

E---------------------------------------------------------------------------------
B---------------------------------------------------------------------------------
G--12-X-X-11-X-X-12-X-X-11-X-X-12-12-12-12--12-X-X-11-X-X-12-X-X-11--11-11-11-11--
D--12-X-X-11-X-X-12-X-X-11-X-X-12-12-12-12--12-X-X-11-X-X-12-X-X-11--11-11-11-11--
A--10-X-X--9-X-X-10-X-X--9-X-X-10-10-10-10--10-X-X--9-X-X-10-X-X--9---9--9--9--9--
E---------------------------------------------------------------------------------

E---------------------------------------------------------------------------------
B---------------------------------------------------------------------------------
G--12-X-X-11-X-X-12-X-X-11-X-X-12-12-12-12--12-X-X-11-X-X-12-X-X-11--11-11-11-11--
D--12-X-X-11-X-X-12-X-X-11-X-X-12-12-12-12--12-X-X-11-X-X-12-X-X-11--11-11-11-11--
A--10-X-X--9-X-X-10-X-X--9-X-X-10-10-10-10--10-X-X--9-X-X-10-X-X--9---9--9--9--9--
E---------------------------------------------------------------------------------

E-----------------------------------------------------10--11--12--11---13--14--15--14~~~--
B------------------------------------12--13--14--13---------------------------------------
G--11--12--13--12---14--15--16--15--------------------------------------------------------
D-----------------------------------------------------------------------------------------
A-----------------------------------------------------------------------------------------
E-----------------------------------------------------------------------------------------

E--12-13-12--10b-10-10b-10---12-13-12--10b-10-10b-10---12-13-12--10b-10-10b-10---
B--12-13-12--10b-10-10b-10---12-13-12--10b-10-10b-10---12-13-12--10b-10-10b-10---
G--------------------------------------------------------------------------------
D--------------------------------------------------------------------------------
A--------------------------------------------------------------------------------
E--------------------------------------------------------------------------------

E--12-13-12--10b-10-10b-10---10~~~~~~~~~~--
B--12-13-12--10b-10-10b-10-----------------
G------------------------------------------
D------------------------------------------
A------------------------------------------
E------------------------------------------

(3:11)
BASS:
G-----------------------------------------------------------------------
D------4-------4--------5-------5--------6-------6--------7-------7-----
A-----------------------------------------------------------------------
E--2-2--2--2-2--2---3-3--3--3-3--3---4-4--4--4-4--4---5-5--5--5-5--5----

PIANO:
E-------------------------------------------------------------------10--
B----------------------------------------------------------------13-----
G-------------------------------------------------------------14--------
D-----------------------------------------------------------------------
A-----------------------------------------------------------------------
E--2----------------3----------------4----------------5-----------------

GUITAR:
E-------------------------------------------------------------------10--
B----------------------------------------------------------------13-----
G-------------------------------------------------------------14--------
D-----------------------------------------------------------------------
A-----------------------------------------------------------------------
E-----------------------------------------------------------------------

E-------------------------------------------------------------------10--
B----------------------------------------------------------------13-----
G-------------------------------------------------------------14--------
D-----------------------------------------------------------------------
A-----------------------------------------------------------------------
E-----------------------------------------------------------------------


E-------------------------------------------------------------------10--
B----------------------------------------------------------------13-----
G-------------------------------------------------------------14--------
D-----------------------------------------------------------------------
A-----------------------------------------------------------------------
E-----------------------------------------------------------------------
Land of the free, home of the brave...

E-------------------------------------------------------------------10--
B----------------------------------------------------------------13-----
G-------------------------------------------------------------14--------
D-----------------------------------------------------------------------
A-----------------------------------------------------------------------
E-----------------------------------------------------------------------
Do you think we will ever be saved?

E-------------------------------------------------------------------10--
B----------------------------------------------------------------13-----
G-------------------------------------------------------------14--------
D-----------------------------------------------------------------------
A-----------------------------------------------------------------------
E-----------------------------------------------------------------------
In this land of dreams find myself sober...

E-------------------------------------------------------------------10--
B----------------------------------------------------------------13-----
G-------------------------------------------------------------14--------
D-----------------------------------------------------------------------
A-----------------------------------------------------------------------
E-----------------------------------------------------------------------
Wonder when will it'll all be over...

E--------------12^-12^-12^-12^-12^-12^-12^-12^-12^-12^-12^-10-12^~^~^~^~-
B--------------15^-15^-15^-15^-15^-15^-15^-15^-15^-15^-15^---------------
G------------------------------------------------------------------------
D------------------------------------------------------------------------
A------------------------------------------------------------------------
E------------------------------------------------------------------------
All be over!?

E--10-12-10-12-10-12-15^~^~^~^~^~15-18-15-18^--15-18-15-18^--15-18-15-18^--15-18-15-18^--
B----------------------------------------------------------------------------------------
G----------------------------------------------------------------------------------------
D----------------------------------------------------------------------------------------
A----------------------------------------------------------------------------------------
E----------------------------------------------------------------------------------------

E--15-18-15-18^--------10--
B-------------------13-----
G----------------14--------
D--------------------------
A--------------------------
E--------------------------

E-------------------------------------------------------------------10--
B----------------------------------------------------------------13-----
G-------------------------------------------------------------14--------
D-----------------------------------------------------------------------
A-----------------------------------------------------------------------
E-----------------------------------------------------------------------
Land of the free, home of the brave...

E-------------------------------------------------------------------10--
B----------------------------------------------------------------13-----
G-------------------------------------------------------------14--------
D-----------------------------------------------------------------------
A-----------------------------------------------------------------------
E-----------------------------------------------------------------------
Do you think we will ever be saved?

E-------------------------------------------------------------------10--
B----------------------------------------------------------------13-----
G-------------------------------------------------------------14--------
D-----------------------------------------------------------------------
A-----------------------------------------------------------------------
E-----------------------------------------------------------------------
Living in a void when the void grows colder...

E-------------------------------------------------------------------10--
B----------------------------------------------------------------13-----
G-------------------------------------------------------------14--------
D-----------------------------------------------------------------------
A-----------------------------------------------------------------------
E-----------------------------------------------------------------------
Wonder when it'll all be over?

E--------------------------------------
B--------------------------------------
G--11-12-11-9~~~~----11-12-11-9~~~~----
D--------------------------------------
A--------------------------------------
E--------------------------------------

E----------------------------------10-11--12-13-
B----------------------13-14-14-15--------------
G--11-12--12-13--13-14--------------------------
D-----------------------------------------------
A-----------------------------------------------
E-----------------------------------------------
            Hah, will you be laughing, when it's over?
E--12-14-15-14--16-17-18-17---
B-----------------------------
G-----------------------------
D-----------------------------
A-----------------------------
E-----------------------------
Will you be laughing.....laughing!?

E--12-13-12-10-8-10-8--12-13-12-10-8-10-8--12-13-12-10-8-10-8-------------12~~~~~
B--12-13-12-10-8-10-8--12-13-12-10-8-10-8--12-13-12-10-8-10-8-------------12~~~~~
G--------------------------------------------------------------------------------
D--------------------------------------------------------------------------------
A--------------------------------------------------------------------------------
E--------------------------------------------------------------------------------
When it's over...When it's over...When it's over...When it's over...





Comments


Popular Wipers tabs & chords
No Fair Bass Tabs
Telepathic Love 1 Chords
Doom Town Tabs
Lets Go Away Tabs
Moon Rider Tabs
Over The Edge Tabs
Ready Or Not Tabs
Return Of The Rat Tabs
Scared Stiff Tabs
Mystery Ukulele


Song lyrics



↑ Back to top | Tablatures and chords are parodies/interpretations of the original songs. You may use it for private study, scholarship, research or language learning purposes only
© 2014 AZChords.com Contact us | Privacy policy | DMCA | Add/correct tabs | Request tabs | Top 50 tabs