» » »

Scared Stiff Tabs (ver.1)

Artists:  A B C D E F G H I J K L M N O P Q R S T U V W X Y Z # 

Scared Stiff Tabs (ver.1)

Wipers
Rating:
0/5 (0 votes)

Hard to play? Try these video lessons and learn fast.
                
Bass:
G------------------------------------------------------------------------
D------------------------------------------------------------------------
A-------------------7-7-7-7--7-7-7-7--5-5-5-5--5-5-5-5--7-7-5-5-2-2-0-0--
E--0-0-0-0--0-0-0-0------------------------------------------------------ 

Guitar doubles with bass until:
E--------------------------------------------------
B--5h3p0-5h3p0~~~-----(horns)-------------0(0)-----
G-----------------------------------------2/4~~~~--
D--------------------------------------------------
A--------------------------------------------------
E--------------------------------------------------    
                What's a pretty....you
                If you feel........place

Chorus:
E5          G5
You look so scared
A5            G5
You look real scared, scared
E5          G5
You look so scared
A5          G5             (E5)
You look so scared stiff

Bridge/solo:
E--12^--10-12-10------------------------------------
B--15^-----------12--10-12-10-8---------------------
G------------------------------------/\/\/\/\/\-----
D-----------------------------------/----------\----
A----------------------------------/------------\---
E---------------------------------0--------------\--
  Ow!
            
Hard to play? Try these video lessons and learn fast. | Correct




comments powered by Disqus
↑ Back to top | Tablatures and chords are parodies/interpretations of the original songs. You may use it for private study, scholarship, research or language learning purposes only