» » »

Wipers, Over The Edge Tabs (ver.2)

Artists:  A B C D E F G H I J K L M N O P Q R S T U V W X Y Z # 

Over The Edge Tabs (ver.2)

Wipers Tabs
Rating:
0/5 (0 votes)
Over The Edge lessons Tabs too difficult? Try these video lessons and learn fast
                Intro

e|---------:--------------------------------------------------------------|
B|---------:--------------------------------------------------------------|
G|---------:--------------------------------------------------------------|
D|2-2-2-2-2:---10-10--3-/5-5-5-3-/5-5-5--X2--7-7-7------------------------|
A|2-2-2-2-2:---8-8-8--1-/3-3-3-1-/3-3-3--X2--5-5-5--5-/7-7-7-5-/7-7-7--x2-|
E|0-0-0-0-0:----------------------------------------3-/5-5-5-3-/5-5-5--X2-|

verse
e|-------------------------------------------------------------------|
B|-------------------------------------------------------------------|
G|-------------------------------------------------------------------|
D|--------------5-5-5-5-5-5-5----------------------------------------|
A|2-2-2-2-2-2-2-3-3-3-3-3-3-3-7-7-7-7-7-7-7-5-5-5-5-5-5-5------------|
E|0-0-0-0-0-0-0---------------5-5-5-5-5-5-5-3-3-3-3-3-3-3------------|

This is a simple version withour the lead guitar
dont know the solo yet
            
Submit corrections

comments powered by Disqus
↑ Back to top | Wipers Tabs for Over The Edge. Lyrics for acoustic guitar and electric guitar. Tablatures and chords are parodies/interpretations of the original songs. You may use it for private study, scholarship, research or language learning purposes only