» » »

Wipers, Over The Edge Bass tabs (ver.1)

Artists:  A B C D E F G H I J K L M N O P Q R S T U V W X Y Z # 

Over The Edge Bass tabs (ver.1)

Wipers Tabs
 Rating:
4/5 (4 votes)
Over The Edge lessons Tabs too difficult? Try these video lessons and learn fast
1
                Intro


G|:--------------------------------------------------------------------|
D|:--------------------------------------------------------------------|
A|:-8-8--1-/3-3-3-1-/3-3-3--X2-3-3--5-5-5------------------------------|
E|:-------------------------------------------3-/5-5-5-3-/5-5-5--X2-5-5|

verse

G|-------------------------------------------------------------------|
D|-------------------------------------------------------------------|
A|--------------3-3-3-3-3-3-3----------------------------------------|
E|0-0-0-0-0-0-0---------------5-5-5-5-5-5-5-3-3-3-3-3-3-3------------|

Wipers Rule
            
Submit corrections

comments powered by Disqus
↑ Back to top | Wipers Bass for Over The Edge. Lyrics for acoustic guitar and electric guitar. 1 Tablatures and chords are parodies/interpretations of the original songs. You may use it for private study, scholarship, research or language learning purposes only