» » »

Wipers, Don't Know What I Am Tabs (ver.1)

Artists:  A B C D E F G H I J K L M N O P Q R S T U V W X Y Z # 

Don't Know What I Am Tabs (ver.1)

Wipers Tabs
 Rating:
4.2/5 (5 votes)
Don't Know What I Am lessons Tabs too difficult? Try these video lessons and learn fast
                
Tuning:standard

One of my favorite songs of the album Is This Real?  I also feel we need more 
accurate Wipers tabs.

Intro
e|-----3-----5-----1----------|
B|-----3-----5-----1----------|
G|-----4-----6-----2----------| x2
D|--5--5--7--7--3--3--3-------|
A|--5--5--7--7--3--3--3-------|
E|--3--3--5--5--1--1--1--1-0--|

e|-------------------------------------3--|
B|-------------------------------------1--|
G|-------------------------------------x--|
D|-------------------------------------3--|
A|--3--2------3--2-----3--2-------3--2-3--|
E|-------1-0-------1-0------1-0--------1--|

Verse
e|----------------333333333333--|
B|----------------111111111111--|
G|----------------xxxxxxxxxxxx--| x4
D|--555555-777777-333333333333--|
A|--555555-777777-333333333333--|
E|--333333-555555-111111111111--|

Chorus
e|-------------------|
B|-------------------|
G|--555-444----------|
D|--555-444-333-5-3--|
A|--333-222-333-5-3--|
E|--333-222-111-3-1--|

e|-------------3--|
B|-------------1--|
G|--555-444----x--|
D|--555-444-3--3--|
A|--333-222-3--3--|
E|--333-222-1--1--|

Solo
e|-----------------------0------------------------0--------15--15-15151515--|
B|-----------------------0------------------------0------17--17---17171717--|
G|-----17~---14--12-12~--12/-\------5-7h-5-5-7h~--7/-\----------------------|
D|-19~-------------------12/-\--------------------7/-\----------------------|
A|-----------------------0------------------------0-------------------------|
E|-----------------------0------------------------0-------------------------|

e|-1515151515---------------------------------------------------------------|
B|--------------------------------------------------------------------------|
G|--------------------------------------------------------------------------|
D|--------------------------------------------------------------------------|
A|--------------------------------------------------------------------------|
E|--------------------------------------------------------------------------|

Verse
e|----------------333333333333--|
B|----------------111111111111--|
G|----------------xxxxxxxxxxxx--| x4
D|--555555-777777-333333333333--|
A|--555555-777777-333333333333--|
E|--333333-555555-111111111111--|

Chorus
e|-------------------|
B|-------------------|
G|--555-444----------|
D|--555-444-333-5-3--|
A|--333-222-333-5-3--|
E|--333-222-111-3-1--|

e|-------------3--|
B|-------------1--|
G|--555-444----x--|
D|--555-444-3--3--|
A|--333-222-3--3--|
E|--333-222-1--1--|
 
End

| /  slide up
| \  slide down
| h  hammer-on
| p  pull-off
| ~  vibrato
| +  harmonic
| x  Mute note
===============================================================================
            
Submit corrections

comments powered by Disqus
↑ Back to top | Wipers Tabs for Don't Know What I Am. Lyrics for acoustic guitar and electric guitar. Tablatures and chords are parodies/interpretations of the original songs. You may use it for private study, scholarship, research or language learning purposes only